a b c d e f g h i j k l m n o p q r s t u v w x y z 0-9

Esa Estrella Era Mi Lujo

Patricio Rey Y Sus Redonditos De Ricota

			
Riff 1
G-2-0-2-0-0------
D-----------3-2--

Riff 2
A-----0-3-0-
E-2-3-------

Riff 3
D-10-9-7-------------
A--------10-8-7h8-7--
E--------------------

Riff 4
G------7-9-10--9h10-9--
D-9-10-----------------

Riff 5
A-3-2-0------

Intro:
Am F GRiff 1 ERiff2  x3
Am F GRiff 1 E
AmRiff 3 E Am
AmRiff 4 E Am F E

Am           F      E
¿Era todo? Pregunté.
         Am  Riff 2
Soy un iluso.
Am            F       E
No nos dimos nada más,
              Am   Riff 5
sólo un buen gesto.

Am F G E x2

El tema sigue igual

Mordí el anzuelo una vez más.
Siempre un iluso.
Nuestra estrella se agotó
Y era mi lujo.

Am F GRiff 1 E Riff2

Solo:
F E Am Am x4
e----------------------------------------------------------------------
B-----------------------------------8-10~--8/10-8----8-10--------------
G----------------------------7-9-10--------------10------8/10-8----10~-
D-10-9-7------------------10------------------------------------11-----
A--------10-8~-7h8-7~--------------------------------------------------
E----------------------------------------------------------------------

e-----------------------------------------------------
B-----------------------------------------------------
G-----------------------------9*--9*--9*--------------
D-------7-10-7-------7-10-------9---9---9-9-10-9-10---
A---7-10--------7-10------8~--------------------------
E-----------------------------------------------------

e----------------------8-9-11-9-8-9-8----------7---------------|
B---------------8-10~--7-8-10-8-7-8-7-10~---10---10-8----10~---|
G--------7-9-10---------------------------------------10-------|
D-7-9-10-------------------------------------------------------|
A--------------------------------------------------------------|
E--------------------------------------------------------------|

Ella fue por esa vez
mi héroe vivo, bah,
fue mi único héroe
en este lío.

La más linda del amor,
que un tonto ha visto soñar.
Metió, metió mi rocanrol bajo este pulso.

Fuente original ATAME [www.atame.org]
Colaborador original: Gonzalo [gonzalo_giff@hotmail.com]

Fuente: tusacordes.com