a b c d e f g h i j k l m n o p q r s t u v w x y z 0-9

Esa Estrella Era Mi Lujo

Patricio Rey Y Sus Redonditos De Ricota

			
_____________________________
~ : vibrato		     |
 		             |
( : estiro (subida)          |
                             |
((: estiro (subida y bajada) |         
                             |
^ : pellizco                 |
_____________________________|


1° PARTE
---------

1|----------------------------------------------|    |    |
2|-------------------------------5-6~-5~--------|    |    |
3|--5^4----------------------4-5---------5^4----| FA | MI |
4|------7^5-3~-2~------3-5-7-----------------7--|    |    |
5|----------------0~-7--------------------------|    |    | 
6|----------------------------------------------|    |    |


PARTE CANTADA
-------------

|     |    |    |     | 
|     |    |    |     | 
| LAm | FA | MI | LAm |  
|     |    |    |     |
|     |    |    |     |  5|------0-3-0--|  5|--3-2-0--|
|     |    |    |     |  6|--0-3--------|  6|---------|


SOLO
----

1|----------------------------------------|----------------|-------------  
2|----------------5~---------------5-10~--|--10^8/5-8-10~--|----------5-- 
3|--5^4----------------------4-5----------|----------------|--(7)-5---- 
4|------7^5-3~-2~------3-5-7--------------|----------------|------------- 
5|-------------------7--------------------|----------------|-------------  
6|----------------------------------------|----------------|-------------

1|-------------------------|---------------------------------------------
2|-------------------------|---------------------------------------------
3|--------5----------5-----|--(7)-5-7--(7)-5-7--(7)-5-7--4^5-4-----
4|----5-7---7----5-7---3~--|-----------------------------------------2~--
5|--7----------7-----------|---------------------------------------------
6|-------------------------|---------------------------------------------

1|-----------------------|--7-8-10-8-7-8-7~-5~--|--(7)˝-4---5--|
2|------------------10~--|----------------------|-----------5----|
3|----------------7------|----------------------|----------------|
4|---------7-9-10--------|----------------------|----------------|
5|--7-8-10---------------|----------------------|----------------|
6|-----------------------|----------------------|----------------|


FINAL
-----

...BAJO ESTE PULSO...
                   		1|--5-----|
   LAm FA MI (queda sonando)    2|--5-----|
		   		3|--5-----|
	           		4|--5--7--|
		   		5|--5--7--|
		   		6|--5-----|
               			  ( LA5m )	

Diego. S. Mulvihill
(virusrelax@yahoo.com)

Fuente original ATAME [www.atame.org]
Colaborador original: Diego. S. Mulvihill [virusrelax@yahoo.com]

Fuente: tusacordes.com