a b c d e f g h i j k l m n o p q r s t u v w x y z 0-9

Esa Estrella Era Mi Lujo

Patricio Rey Y Sus Redonditos De Ricota

			
Intro
G|-----------------------|x4
D|-----------------------|
A|-----------------------|
E|-55--11--33--00--1-3-4-|

 |-----------------------------|x2
 |-----------------------------|
 |-----------------------------|
 |-1x12-0x12-5x12-5x12-|

Verso
G|----------------|---------|
D|----------------|---------|
A|----------------|-----0-2-|
E|-55--11--00--55-|-0-2-----|

 |----------------|-------|
 |----------------|-------|
 |----------------|-0-2-1-|
 |-55--11--00--55-|-------|

Puente
G|-----------------------|x2
D|-----------------------|
A|-----------------------|
E|-55--11--33--00--1-3-4-|

Verso
G|----------------|---------|
D|----------------|---------|
A|----------------|-----0-2-|
E|-55--11--00--55-|-0-2-----|

 |----------------|-------|
 |----------------|-------|
 |----------------|-0-2-1-|
 |-55--11--00--55-|-------|

Puente
G|-----------------------|x2
D|-----------------------|
A|-----------------------|
E|-55--11--33--00--1-3-4-|

Solo de Guitarra
G|-----------------------------|x4
D|-----------------------------|
A|-----------------------------|
E|-1x12-0x12-5x12-5x12-|

Verso
G|----------------|---------|
D|----------------|---------|
A|----------------|-----0-2-|
E|-55--11--00--55-|-0-2-----|

 |----------------|-------|
 |----------------|-------|
 |----------------|-0-2-1-|
 |-55--11--00--55-|-------|

 |----------------|---------|
 |----------------|---------|
 |----------------|-----0-2-|
 |-55--11--00--55-|-0-2-----|

Escuchá la canción para saber el ritmo

Fuente original ATAME [www.atame.org]
Colaborador original: Sebastián Vidondo [rojoamargodelsiglo@yahoo.com.ar]

Fuente: tusacordes.com