a b c d e f g h i j k l m n o p q r s t u v w x y z 0-9

Es Hora De Levantarse Querido

Patricio Rey Y Sus Redonditos De Ricota

			
-RIFF-
1-------------------------------------
2--0-0-0-0h2-2-0-2-0-2-0-0-0-x4---
3-------------------------------------

-Arreglos-

Dm          Em7            Am                                   Dm                     Em           G

1-8-7-----------------8-7---------------I----------8------I---10-10-----I----12-12-I----7-----------
2-----10-8-10--------------10-8---------I-------------10-I---10-10-----I----12-12-I-------8--8-----
3---------------9p7----------------------I-----7h9--------I-------------I---------- -I--5/7-----------


Nadie quiere tu secreto mas que vos... nadie mas que vos...

Solo Dm Am  x4 / G /  F Dm F C  x2


1----------------------------------------------------5-----------5-------5--------------------
2---------------------------10-------------------------5--810----810----8p5-----5---5-5--
3------5----7p5--78-5-----9--7-5----7-7h8-5-79------------------------------7----7------
4--5-7---7--------------7-----------7--------------------------------------------------------
5---------------------------------------------------------------------------------------------
6---------------------------------------------------------------------------------------------

1---------------------------------------------------------------------------------------------
2-------------------------------5--7---------------------------------------------------------
3--5-----------------5p4h5-7---5--7--5--7x-7x-7x-7x-7x-7x-79-79-7p5-7--5------
4----7-----------5-7----------------------------------------------------------------7---7-5--
5-------0-3-5/7------------------------------------------------------------------------------
6---------------------------------------------------------------------------------------------

1-----------------------------------------------------------------------------------------------
2-------------------------------------------------------------------------------8-10-13-15-17-
3---------------5-5---5-7-78-5-7-78-------5----------5-5----7/9-9-7-5-7/9-----------------
4----------5h7------7--------------------5h7----7--5h7-------7--------------------------------
5--7--5h7--------------------------------------------------------------------------------------
6-----------------------------------------------------------------------------------------------


espero que les sirva loco, todo a oido
un abrazo

manu

Fuente original ATAME [www.atame.org]
Colaborador original: Manuel Agostinucci [gulp887@hotmail.com]

Fuente: tusacordes.com