a b c d e f g h i j k l m n o p q r s t u v w x y z 0-9

Es Hora De Levantarse Querido

Patricio Rey Y Sus Redonditos De Ricota

			
INTRO:

Guitarra:
              Riff A
E|--------||-------------------------------------||
B|--------||-------------------------------------||
G|--7-7-7-||-7/9--9--7--9--7--9--7-7-7-7-7----7--||X4
D|--5-5-5-||-5/7--7--5--7--5--7--5-5-5-5-5----5--||
A|--------||--------------------------------7----||
E|--------||-------------------------------------||

BAJO:
G|--------||-------------------------------------||
D|--------||-------------------------------------||X4
A|--------||-------------------------------------||
E|--------||---5-----3--5--3--5--3-3-3-3-3--0-3-4||


en la 3er vuelta de riff a 
GUITARRA 2 HACE:

E|----8--7--5----5---------8-7-5--5----||
B|------------8------5-8-----------------||
G|---------------------------------------||
D|---------------------------------------||
A|---------------------------------------||
E|---------------------------------------||


SIGUE ASI....

Guitarra 1:

    REm            MIm7          LAm                     REm             MIm7       SOl   
E|-5---5-5---5-|-7---7-7---7-|-----------------------|-5---5-5---5-|-7---7-7---7-|--------------|
B|-6---6-6---6-|-8---8-8---8-|-------------10-13-10|-6---6-6---6-|-8---8-8---8-|-------8-8-8--|
G|-7-

Fuente original ATAME [www.atame.org]
Colaborador original: GUILLE [elguille665@hotmail.com]

Fuente: tusacordes.com