a b c d e f g h i j k l m n o p q r s t u v w x y z 0-9

Es Hora De Levantarse Querido

Patricio Rey Y Sus Redonditos De Ricota

			
Intro
G|-----------------------|x4 |-----------------------------|x2
D|-----------------------|   |---4-7-----6-9---------------|
A|-----------------------|   |-5-----5-7-----7-------------|
E|-3-5-3-5--5--333-44-55-|   |-----------------5--55-5-6-7-|

Verso
G|-----------------------|x4
D|-----------------------|
A|-----------------------|
E|-3-5-3-5--5--333-44-55-|

Coro
G|------------------------------------|
D|---4-7-----6-9----------------------|
A|-5-----5-7-----7---4--4-5-6-7-------|
E|-----------------5------------5-6-7-|

 |-------------------------------|
 |---4-7-----6-9-----------------|
 |-5-----5-7-----7---------------|
 |------------------3--33--3--33-|

Verso
G|-----------------------|x4
D|-----------------------|
A|-----------------------|
E|-3-5-3-5--5--333-44-55-|

Coro
G|------------------------------------|
D|---4-7-----6-9----------------------|
A|-5-----5-7-----7---4--4-5-6-7-------|
E|-----------------5------------5-6-7-|

 |-------------------------------|
 |---4-7-----6-9-----------------|
 |-5-----5-7-----7---------------|
 |------------------3--33--3--33-|

Solo de Guitarra
G|---------------|x3 |--------------------|
D|---------------|   |--------------------|
A|-5-55-5--------|   |-5-55-555-----------|
E|--------5-55-5-|   |----------5-6-7-8/9-|

 |-----------------------------|-------------------------|
 |-----------------------------|-------------------------|
 |--------------5-------3------|--------------3x55x8-|
 |-3-33-3-1-11-1--1-11-1--1-11-|-3-33-3-1-11-1-----------|

Verso
G|-----------------------|x4
D|-----------------------|
A|-----------------------|
E|-3-5-3-5--5--333-44-55-|

Coro
G|------------------------------------|
D|---4-7-----6-9----------------------|
A|-5-----5-7-----7---4--4-5-6-7-------|
E|-----------------5------------5-6-7-|

 |-------------------------------|
 |---4-7-----6-9-----------------|
 |-5-----5-7-----7---------------|
 |------------------3--33--3--33-|

Verso hasta el final
G|-----------------------|x12
D|-----------------------|
A|-----------------------|
E|-3-5-3-5--5--333-44-55-|

Escuchá la canción para saber el ritmo

Fuente original ATAME [www.atame.org]
Colaborador original: Sebastián Vidondo [rojoamargodelsiglo@yahoo.com.ar]

Fuente: tusacordes.com