a b c d e f g h i j k l m n o p q r s t u v w x y z 0-9

Ella Debe Estar Tan Linda

Patricio Rey Y Sus Redonditos De Ricota

			
Intro:
GUITARRA:
e|----------------------------------||
B|----------------------------------||
G|----------------------------------||X4
D|----------------------------------||
A|----4-5----4-5----4-5-7--5-4--5-4-||
E|--0------0------0-----------------||

BAJO:
G|----------------------------------||
D|----------------------------------||X4
A|----4-5----4-5----4-5-7--5-4--5-4-||
E|--0------0------0-----------------||


VERSO 1:

LA7
Conduje toda la noche, 
reventando los cambios, 
con mis ojos de durax lastimado. 
                                              ______X6______
GUITARRA:  LA7                               |   MI7        |
e|----3--------3---------3--------3-|-0-0-0----------|---------|---------|
B|----2--------2---------2--------2-|-3-3-3---5-/-3|---------|---------|
G|----2--------2---------2--------2-|-1-1-1---4-/-2|---LA7---|---MI7---|
D|----2--------2---------2--------2-|-0-0-0----------|---------|---------|
A|--0---------0------------0----------0-----|-2-2-2----------|---------|---------|
E|--------0-3--------0--3--------0--3-------|-0-0------------|---------|---------|

 MI7
¡Por Dios! ¡La ruta está trabada y fría! 
Y cae la lluvia en estocadas finas. 

LA7
¡Ella debe estar tan linda! 
descubriendo mi secreto 
con sus oscuros ojos delatando. 
  
MI7
Quiero morder el tallo de su rosa, 
aunque me clave sus uñas espinas. 

BAJO: durante el verso
     LA7                                   MI7
G|--------------------------------------|--------------------------------------------------------
D|--------------------------------------|--------------------------------------------------------
A|--------------------------------------|--4-5---4-5---4-5--4-2-0-------4-5---4-5---4-5-7-5-4-5-4
E|-5---0-3-5--0-3-5--0-3-5-3-5|-0----0-----0------------4-2-0-----0-----0--------------
     LA7                                   MI7
G|----------------------------------|--------------------------------------------------------|
D|----------------------------------|--------------------------------------------------------|
A|----------------------------------|--4-5---4-5---4-5--4-2-0-------4-5---4-5---4-5-7-5-4-5-4|
E|-555-0-3-555--0-3-555--0-3-555--|0-----0-----0------------4-2-0-----0-----0--------------|


ESTRIBILLO 1:
GUITARRA
E|------------|-------------|-----------|-----------|
B|------------|-------------|-----------|-----------|
G|------------|-------------|-----------|4----5~|
D|--------6-|-------6~~-|--------6|----6----|
A|-7-4----|7-4------|-7-4---|-----------|
E|------------|-------------|-----------|-----------|

BAJO:
G|------------|-------------|-----------|---------------------|
D|--------6-|-------6---|--------6|---------------------|
A|-7-4----|7-4------|-7-4---|--------7-7-7-7-7-7-7|
E|------------|-------------|-----------|7-4--------------|

 ¡Ella está tan linda! 
 ¡Ella es tan linda!
  No puede durar.


SOLO DE GUITARRA 1:
BAJO: durante el solo
      MI7
G|----------------------------|-----------------------------|----------------------------|----
D|----------------------------|-----------------------------|----------------------------|----
A|---4-5---4-5---4-5-7-5-4-5-4|---4-5---4-5---4-5--4-2-0----|---4-5---4-5---4-5-7-5-4-5-4|----
E|-0-----0-----0--------------|-0-----0-----0------------4-2|-0-----0-----0--------------|----

G|-----------------------------|
D|-----------------------------|
A|----4-5---4-5---4-5-7-5-4-5-4|
E|--0-----0-----0--------------|

Guitarra solo

e|----------------------------------10--------------/12---12-12-/---/12-12-12---------------|
B|-------------------------8----10b----10-8---------/12---12-12-/---/12-12-12--12-11-10-----|
G|-7-7-7-7-7-7-7-7-7---7-9---9--------------9-9-------------------------------------------12|
D|-------------------9--------------------------------------------------------------------------|
A|----------------------------------------------------------------------------------------------|
E|----------------------------------------------------------------------------------------------|
 ____________X2____________ ___________X2____________
e|-------------------------|-5p3p0-5p3p0-5p3p0-5p3p0-|-------------------------|-----------------
B|-5p3p0-5p3p0-5p3p0-5p3p0-|-------------------------|-5p3p0-5p3p0-5p3p0-5p3p0-|-----------------
G|-------------------------|-------------------------|-------------------------|3p2p0-3p2p0-3p2p0
D|-------------------------|-------------------------|-------------------------|-----------------
A|-------------------------|-------------------------|-------------------------|-----------------
E|-------------------------|-------------------------|-------------------------|-----------------

-----------------0-|
-----------------0-|
-----------------0-|
2-2--2-0-2-0--2------|
---------------------|
---------------------|


VERSO 2: igual

 LA7
 Conduje toda la noche, 
 reventando los cambios, 
 con mis ojos de durax lastimado. 
 MI7
 Y ahora estoy en líos por mi furia, 
 sin un centavo encima y cae la lluvia. 
 LA7
 La cara sobre la almohada 
 encadenada de plata 
 está tendiendo la trampa para nuestro amor...
 MI7
 Todo lo que comi es una naranja
 y estoy apunto de tirar la esponja.

  
ESTRIBILLO 2Igual

 ¡Ella está tan linda! 
 ¡Ella es tan linda!
  No puede durar.



REPITE EL SOLO DE GUITARRA.....



VERSO 3: Igual
 LA7
 Conduje toda la noche, 
 reventando los cambios, 
 con mis ojos de durax lastimado. 
 MI7
 ¡Por Dios! ¡La ruta está trabada y fría! 
 Y cae la lluvia en estocadas finas. 

 LA7
 ¡Ella debe estar tan linda! 
 descubriendo mi secreto 
 con sus oscuros ojos delatando. 
  
 MI7
 Quiero morder el tallo de su rosa, 
 aunque me clave sus uñas espinas. 


ESTRIBILLO 3Igual

 ¡Ella está tan linda! 
 ¡Ella es tan linda!
  No puede durar.

FINAL,,,,

GUITARRA:
e|----------------------------------||
B|----------------------------------||
G|----------------------------------||X2
D|----------------------------------||
A|----4-5----4-5----4-5-7--5-4--5-4-||
E|--0------0------0-----------------||

BAJO:
G|----------------------------------||
D|----------------------------------||X2
A|----4-5----4-5----4-5-7--5-4--5-4-||
E|--0------0------0-----------------||


FIn.

Fuente original ATAME [www.atame.org]
Colaborador original: Guille [elguille665@hotmail.com]

Fuente: tusacordes.com