a b c d e f g h i j k l m n o p q r s t u v w x y z 0-9

Ella Baila Con Todos

Patricio Rey Y Sus Redonditos De Ricota

			
Intro:
                                              _______X2______    _______X2________
Guitarra:    riff1           riff2           |  riff1        |  |  riff2          |
E|------------------|--------------------|--|------------------|--------------------|
B|------------------|--------------------|--|------------------|--------------------|
G|------------------|--------------------|X2|------------------|--------------------|
D|---------------x-x|----------------x-x-|--|---------------x-x|----------------x-x-|
A|-5-0-3-0-5~--x-x|-5--0-6-0-5~--x-x-|--|-5-0-3-0-5~--x-x|-5--0-6-0-5~--x-x-|
E|------------------|--------------------|--|------------------|--------------------|
                                              _______X2______    _______X2________
BAJO:        riff1           riff2           |  riff1        |  |  riff2          |
G|------------------|--------------------|--|------------------|--------------------|
D|------------------|--------------------|X2|------------------|--------------------|
A|-5---3---5------|-5----6---5~------|--|-5---3---5------|-5----6---5~------|
E|---5---5----------|----5---5-----------|--|---5---5----------|----5---5-----------|

en la intro violin creo hace.... 

E|---------------------|
B|---------------------|
G|---------------------|X4
D|----9--10-----9------|
A|-12-------------12-|
E|---------------------|

la intro sigue asi....  

guitarra:  
   RIFF 3
E|------------------5--5-|
B|------------------5--5-|
G|------7--888---5--0------|X4
D|-x-x--7--888---5-----------|
A|-x-x--5--666---3-----------|
E|-x-x-----------------------|

BAJO:
G|---------------------------|
D|------------------7------|X4
A|/--5--5--666---------------|
E|---------------8-----------|


VERSO 1:     dejar sonar               Punteo 1
E|----------------------------------|--------------------------------------------------------|
B|----------------------------------|--7h8p7-----7~~---------------------------------------|
G|-5~~~~~-------------------------|--------9-7---------------------------------------------|
D|----------------------------------|--------------------------------------------------------|
A|----------------------------------|--------------------------------------------------------|
E|----------------------------------|--------------------------------------------------------|

BAJO:                                         _______X2______    _______X2________
             riff1           riff2           |  riff1        |  |  riff2          |
G|------------------|--------------------|--|------------------|--------------------|------|
D|------------------|--------------------|X2|------------------|--------------------|--/-12|
A|-5---3---5------|-5----6---5~------|--|-5---3---5------|-5----6---5~------|------|
E|---5---5----------|----5---5-----------|--|---5---5----------|----5---5-----------|------|


SOBRE BAJO:
               
  "Es una de esas noches
                    Punteo 1
  Donde a todos nos gusta          
  La misma bailarina, ay         
  y el mismo lunar"


fondo:
E|---------------------|
B|---------------------|
G|---------------------|X4
D|----9--10-----9------|
A|-12-------------12-|
E|---------------------|


POS-VERSO: RIFF3

  RIFF 3
E|------------------5--5-|
B|------------------5--5-|
G|------7--888---5--0------|X4
D|-x-x--7--888---5-----------|
A|-x-x--5--666---3-----------|
E|-x-x-----------------------|

BAJO:
G|---------------------------|
D|------------------7------|X4
A|/--5--5--666---------------|
E|---------------8-----------|


VERSO 2 Igual al 1

Sobre BASE:

  "Hay un par de mocosos
  con suspiros teatrales
PUNTEO 1...
  al ver cielos despendejados, ay
  de todo placer


REPITE POS-VERSO
-------------------

RIFF3 ] X4


*************
INTERMEDIO
*************

GUITARRA:Punteo de fondo
      SoL                 1/2        ^           RE
E|-------------------------------------------|-----------------------|
B|--8~-8~-8~--8-7-8-10br--8--7~------|-----------------------|
G|--------------------------------------7~-|-5-4--5p4--------------|
D|-------------------------------------------|----------5------4-----|
A|-------------------------------------------|------------3-5-----5|
E|-------------------------------------------|-----------------------|

BAJO:    SOL                                     RE
G|-------------------------------------------|------------------------|
D|-------------------------------------------|-----------------4------|
A|------------------------------/-12--10-----|55-0--555--0-555---0-555|
E|--3-3-3--0--3-3-3--0--3-3-3----------------|------------------------|

sigue asi..

Guitarra:
     Re           Do     Re       Do SOl
E|-------------------|------------------|
B|-------------------|------------------|
G|--7----7----7----5-|--7----7----5-----|X2
D|--7-?--7-?--7-?--5-|--7-?--7-?--5---5-| 
A|--5----5----5----3-|--5----5----3---5-|
E|-------------------|----------------3-|

BAJO:
      RE  RE    RE  do    RE  RE     do SOL       REen otra octava DO     RE   RE      DO  SOL
G|---------------------|--------------------|---------------------------|-----------------------|
D|---------------------|--------------------|------10/12-10/12---10-|10/12-10/12-10--12/|
A|3/5-3/5-3/5--3-|3/5-3/5---3-----|3/5----------------------|------------------10---|
E|---------------------|------------------3-|---------------------------|-----------------------|


PUENTE:

Guitarra: 
E|---------------------------|----------------55--555|-----------------------|--------------55|
B|---------------------------|----------------55--555|-----------------------|--------------55|
G|---------------------.-----|-----------------------|-----------------------|------------------|
D|-------------------6/7-7~|-----------------------|----------------6/7-7|------------------|
A|-x-x-----------------------|-----------------------|x-x--------------------|------------------|
E|-x-x-5-5-6-6-3-5---------|3--5-5-6-6-3-5-------|x-x-5-5-6-6-35-------|3-5-5-6-6-3-5---|
      PM........                 PM.......                .........            ...........

BAJO:
G|---------------------------|-----------------------|-----------------------|------------------|
D|---------------------------|-----------------------|-----------------------|------------------|
A|---------------------------|-----------------------|-----------------------|------------------|
E|-x-x-5-5-6-6-3-5--x-x----|3--5-5-6-6-3-5--x-x--|x-x-5-5-6-6-35--x-x--|3-5-5-6-6-3-5-xx|


VERSO 3: igual


  "Ella baila con todos
                  Punteo 1
  paseando su mirada
  y cuando toma tu copa, ay
  brinda por tu amor"


POS-VERSO: RIFF3

  RIFF 3
E|------------------5--5-|
B|------------------5--5-|
G|------7--888---5--0------|X4
D|-x-x--7--888---5-----------|
A|-x-x--5--666---3-----------|
E|-x-x-----------------------|


VERSO 4: Igual

  "Ella es la que mas brilla a esta hora
                             Punteo 1
  cree que es invisible esta vez
  a los ojos de todos los tontos
  que saben su lunar"


FINAL: solo de saxo

  RIFF 3
E|------------------5--5-|
B|------------------5--5-|
G|------7--888---5--0------|X28
D|-x-x--7--888---5-----------|
A|-x-x--5--666---3-----------|
E|-x-x-----------------------|

BAJO:
G|---------------------------|
D|------------------7------|X28 
A|/--5--5--666---------------|
E|---------------8-----------|

Instrumento de fondo hace desde la vuelta 4 de riff 3:

E|-------------------------|
B|-------------------------|
G|-------------------------|X24
D|----9-10-12--10-9------|
A|-12-----------------12-|
E|-------------------------|


TERMINA con BATERIA sola X16...

Fuente original ATAME [www.atame.org]
Colaborador original: Guille [elguille665@hotmail.com]

Fuente: tusacordes.com