a b c d e f g h i j k l m n o p q r s t u v w x y z 0-9

Ella Baila Con Todos

Patricio Rey Y Sus Redonditos De Ricota

			
Intro
G|------|x2
D|------|
A|-5--|
E|------|

 |-----------|x8
 |-----------|
 |-5h6-5---5-|
 |-------5---|
 
 |-------------|x4
 |-------------|
 |-5----x--5-6-|
 |----5--------|
 
Verso
G|-----------|x8
D|-----------|
A|-5h6-5---5-|
E|-------5---|

Puente
G|-------------|x4
D|-------------|
A|-5----x--5-6-|
E|----5--------|

Verso
G|-----------|x8
D|-----------|
A|-5h6-5---5-|
E|-------5---|

Puente
G|-------------|x4
D|-------------|
A|-5----x--5-6-|
E|----5--------|

 |---------------------------------|
 |-----------------------4---4---4-|
 |-------2---2---2-1/5-5---5---5---|
 |-1/3-3---3---3-------------------|

 |----------------------------|x2
 |----------------------------|
 |-5--5--5--3--5--5--3-----5--|
 |----------------------3-----|

 |-------------|x4
 |-------------|
 |-----1-1-----|
 |-5-5-----3-5-|

Verso
G|-----------|x8
D|-----------|
A|-5h6-5---5-|
E|-------5---|

Puente
G|-------------|x4
D|-------------|
A|-5----x--5-6-|
E|----5--------|

Verso
G|-----------|x8
D|-----------|
A|-5h6-5---5-|
E|-------5---|

Puente hasta el final
G|-------------|
D|-------------|
A|-5----x--5-6-|
E|----5--------|

Escuchá la canción para saber el ritmo

Fuente original ATAME [www.atame.org]
Colaborador original: Sebastián Vidondo [rojoamargodelsiglo@yahoo.com.ar]

Fuente: tusacordes.com