a b c d e f g h i j k l m n o p q r s t u v w x y z 0-9

El Pibe De Los Astilleros

Patricio Rey Y Sus Redonditos De Ricota

			
esta es el tab perfecto del tema
sin errores ya que los tab anteriores contenian errores sobretodo 
en el solo

intro
|----------------|----------------|----------------|----------------|
|----------------|----------------|----------------|----------------|
|7---7-----------|5---5-----------|7---7-----------|5-------7-------|
|--------3-3-3---|--------3-3-3---|--------3-3-3---|----7-------0---|

|----------------|----------------|----------------|----------------|
|----------------|----------------|----------------|----------------|
|7---7-----------|5---5-----------|7---7-----------|5-------7-------|
|--------3-3-3---|--------3-3-3---|--------3-3-3---|----7-----------|

Verso
|----------------|----------------|----------------|----------------|
|----------------|----------------|--------5-5-5---|----------------|
|----------------|3---3---5-5-5---|7---7-----------|3---3---5-5-5---|
|0---0---3-3-3---|----------------|----------------|----------------|

|----------------|----------------|----------------|----------------|
|----------------|----------------|----------------|----------------|
|7---7-----------|3---3---5-5-5---|7---7---5-5-5---|3---3---3-3-3---|
|--------3-3-3---|----------------|----------------|----------------|

instrumental
|----------------|----------------|----------------|----------------|
|----------------|----------------|----------------|----------------|
|7---7-----------|5---5-----------|7---7-----------|5-------7-------|
|--------3-3-3---|--------3-3-3---|--------3-3-3---|----7-----------|

verso
|----------------|----------------|----------------|----------------|
|----------------|----------------|--------5-5-5---|----------------|
|----------------|3---3---5-5-5---|7---7-----------|3---3---5-5-5---|
|0---0---3-3-3---|----------------|----------------|----------------|

|----------------|----------------|----------------|----------------|
|----------------|----------------|----------------|----------------|
|7---7-----------|3---3---5-5-5---|7---7---5-5-5---|3---3---3-3-3---|
|--------3-3-3---|----------------|----------------|----------------|

instrumental
|----------------|----------------|----------------|----------------|
|----------------|----------------|----------------|----------------|
|7---7-----------|5---5-----------|7---7-----------|5-------7-------|
|--------3-3-3---|--------3-3-3---|--------3-3-3---|----7-----------|

estribillo
|----------------|----------------|x3  
|----------------|----------------|   
|2-------2-------|3-------0-------|    
|----------------|----------------|   

|----------------|----------------|
|----------------|----------------|
|2-------2-------|3---3---5---5---| 
|----------------|----------------|

instrumental
|----------------|----------------|----------------|----------------|
|----------------|----------------|----------------|----------------|
|7---7-----------|5---5-----------|7---7-----------|5-------7-------|
|--------3-3-3---|--------3-3-3---|--------3-3-3---|----7-----------|

verso
|----------------|----------------|----------------|----------------|
|----------------|----------------|--------5-5-5---|----------------|
|----------------|3---3---5-5-5---|7---7-----------|3---3---5-5-5---|
|0---0---3-3-3---|----------------|----------------|----------------|

|----------------|----------------|----------------|----------------|
|----------------|----------------|----------------|----------------|
|7---7-----------|3---3---5-5-5---|7---7---5-5-5---|3---3---3-3-3---|
|--------3-3-3---|----------------|----------------|----------------|

solo
|----------------|----------------|x3 
|----------------|----------------|   
|--------5-5-5---|3---3---5-5-5---|   
|3---3-----------|----------------|  

|----------------|----------------|
|----------------|----------------|  
|7---7---5-5-5---|3---3---3-3-3---|  
|----------------|----------------|    

verso
|----------------|----------------|----------------|----------------|
|----------------|----------------|--------5-5-5---|----------------|
|----------------|3---3---5-5-5---|7---7-----------|3---3---5-5-5---|
|0---0---3-3-3---|----------------|----------------|----------------|

|----------------|----------------|----------------|----------------|
|----------------|----------------|----------------|----------------|
|7---7-----------|3---3---5-5-5---|7---7---5-5-5---|3---3---3-3-3---|
|--------3-3-3---|----------------|----------------|----------------|

instrumental
|----------------|----------------|----------------|----------------|
|----------------|----------------|----------------|----------------|
|7---7-----------|5---5-----------|7---7-----------|5-------7-------|
|--------3-3-3---|--------3-3-3---|--------3-3-3---|----7-----------|

estribillo
|----------------|----------------|x3  
|----------------|----------------|   
|2-------2-------|3-------0-------|    
|----------------|----------------|   

|----------------|----------------|
|----------------|----------------|
|2-------2-------|3---3---5---5---| 
|----------------|----------------|

final
|----------------|----------------|----------------|----------------|
|----------------|----------------|----------------|----------------|
|7---7-----------|5---5-----------|7---7-----------|5-------7-------|
|--------3-3-3---|--------3-3-3---|--------3-3-3---|----7-------0---|

|----------------|----------------|----------------|----------------|
|----------------|----------------|----------------|----------------|
|7---7-----------|5---5-----------|7---7-----------|5-------7-----57|
|--------3-3-3---|--------3-3-3---|--------3-3-3---|----7-------78--|

|----------------|----------------|----------------|----------------|
|----------------|----------------|----------------|----------------|
|----------------|----------------|----------------|----------------|
|0---------------|----------------|----------------|------------3-/-|

|----------------|----------------|----------------|----------------|
|----------------|----------------|----------------|----------------|
|----------------|5---5-----------|7---7-----------|5-------3-------|
|12--12--3-3-3---|--------3-3-3---|--------3-3-3---|----7-----------|

|----------------|----------------
|----------------|----------------
|----------------|----------------
|----------------|0---------------

Fuente original ATAME [www.atame.org]
Colaborador original: mariano alvarez [alv_jor@yahoo.com.ar]

Fuente: tusacordes.com