a b c d e f g h i j k l m n o p q r s t u v w x y z 0-9

El Pibe De Los Astilleros

Patricio Rey Y Sus Redonditos De Ricota

			
Algunos movimientos son muy difíciles de escuchar,
pero yo estoy seguro que la saqué perfecto. ¡Fíjense y comprueben los cambios!

Intro  x2						~ = Dejar sonando
G|----------------------------------------------
D|----------------------------------------------
A|--7--7-------5--5--------7-7-------5-5---7~ -
E|-------3-3-3------3-3-3/-----3-3-3-----7------

Estrofa 1
G|---------------------------------------------
D|---------------------------------------------
A|----------3-3-5-5-5--7-7-10-10-10-3-3-5-5-5/-
E|--0-0-3-3------------------------------------

G|-----------------------------------------
D|-----------------------------------------
A|-7-7-------3-3-5-5-5/--7-7-5-5-3-3-3-3-0-
E|-----3-3-3-------------------------------

** Intro **

** Estrofa 1 **

** Intro **

Puente
G|--------------        -------------
D|--------------        -------------
A|--2~--3~--0-0-  x3    -2~--3-3-5-5-
E|--------------        -------------

** Intro **

Estrofa 2
G|---------------------------------------------
D|---------------------------------------------
A|------------3-3-5-5-5/-7-7-10-103-3-3-5-5-5-
E|--0-0-3-3-3----------------------------------

G|------------------------------------------
D|------------------------------------------
A|-7-7-------3-3-5-5-5--7-7-5-5-5-3-3-3-3-0-
E|-----3-3-3--------------------------------

Solo de Saxo
G|----------------------
D|----------------------
A|------------3-3-5-5-5-  x2
E|--0-0-3-3-3-----------

G|------------------------------------------
D|------------------------------------------
A|-----------3-3-5-5-5/7--7-7-5-5-3-3-3-3-0-
E|-0-0-3-3-3--------------------------------

** Estrofa 1 **

** Intro **

** Puente **

Final
G|-------------------------------------------------
D|-------------------------------------------------
A|--7--7-------5--5---------7--7-------5--5---7~ -
E|-------3-3-3------3-3-3/-------3-3-3------7------

G|-------------------------------------------------------
D|-------------------------------------------------------
A|--7--7-------5--5---------7--7-------5--5---7~ --5h7---
E|-------3-3-3------3-3-3/-------3-3-3------7----------0-

Ahí deja sola a la viola durante un Intro y termina así:
G|-----------------------------------------------------------
D|-----------------------------------------------------------
A|-------7--7-------5--5---------7--7-------5--5---3~ -------
E|-0-0-0------3-3-3------3-3-3/-------3-3-3------7-----0-0-0-

~~~~~~~~~~~~~~~~~~~~~~~~~~~~~~~~~~~~~~~~~~~~~~~~~~~~~~~~~~~~~~~~~~~~~~~~

Espero ke les guste y ke puedan darle al bajo a pleno.
¡Aguante los Redondos, che!

								Araña...

Fuente original ATAME [www.atame.org]
Colaborador original: Hernán Martínez [terceroyultimo@yahoo.com.ar]

Fuente: tusacordes.com