a b c d e f g h i j k l m n o p q r s t u v w x y z 0-9

El Lobo Caido

Patricio Rey Y Sus Redonditos De Ricota

			
INTRO:

BAJO:     LA 
G|--------------------------------------|-----------------------------------------------|
D|--------------------------------------|--------------77--77----------------77---77----|
A|--------------------------------------|-----------------------------------------------|
E|-5-5555-3-5-5555-0-5-5555--6-5-5555-0-|-5-5555-3-5--5--55----5-5555---6-5---55---5--|

ARREGLO para guitarra
e|-------------------------------------------------------------||
B|-------------------------------------------------------------||
G|-------------------------------------------------------------||x2
D|--2--2-2-2-2----2---2-2-2-2-----2--2-2-2-2----3--2--2-2-2-2--||
A|--0--0-0-0-0----0---0-0-0-0-----0--0-0-0-0----1--0--0-0-0-0--||
E|-------------3--------------0--------------------------------||
       PM.....        .......        .......          .......


VERSO 1:

BAJO:     LA 
G|-------------------------------------------|-------------------------------|---------------|
D|-------------77--77-----------------77--77-|--------------77---77----------|---------------|
A|-------------------------------------------|-------------------------------|---------------|
E|-5-5555-3-5-5---5---5-5555--6-5--5--55---|-5-5555-3-5--5--55----5-5555-|--6-5---65-----|

ARREGLO para guitarra
       la5    sol      LA5        la5         SIb5   LA5               LA5
e|-------------------------------------------------------------|  |----------|
B|-------------------------------------------------------------|  |----------|
G|-------------------------------------------------------------|x2|----------|
D|--2--2-2-2-2----2---2-2-2-2-----2--2-2-2-2----3--2--2-2-2-2--|  |----------|
A|--0--0-0-0-0----0---0-0-0-0-----0--0-0-0-0----1--0--0-0-0-0--|  |--8--7--|
E|-------------3--------------0--------------------------------|  |--6--5--|
       PM.....        .......        .......          .......


LA5              SOL5   LA5
  Dije que el lobo   estaba sordo
LA5            SIb5  LA5
  Que no escuchaba  mas.
entre tanto montaje sonso
tanta infidelidad.


ESTRIBILLO:

BAJO:   la         la          la             la
G|----------------------------------------------------|
D|----------------------------------------------------|
A|----------------------------------------------------|x1
E|---6-5-------6-5-------6-5----------6-5-----|

guitarra:
    la           la            la             la
e|-12-12------12-12------12-12-------12-12----|
B|-13-13------13-13------13-13-------13-13----|
G|-14-14------14-14------14-14-------14-14----|x1
D|-14-14------14-14------14-14-------14-14----|
A|-12-12------12-12------12-12-------12-12----|
E|----------------------------------------------------|

"Maté... y maté... y maté!.....y maté"


VERSO 2:

BAJO:     
G|---------------------------------------|
D|---------------------------------------|
A|---------------------------------------|x4
E|--5--5-5-5-5-5-5-5---3-3-3--6-3-5--0---|

guitarra:     RIFF "A"
e|---------------------------------------|
B|---------------------------------------|
G|---------------------------------------|x4
D|--2--2-2-2-2-2-2-2--------------2------|
A|--0--0-0-0-0-0-0-0----------1---0------|
E|---------------------3-3-3----3----0---|
       PM...........

sobre riff A
Muy mucha merca, poco bongó
sobre riff A
y el mal gusto encallo
sobre riff A
en un manantial frí dije
sobre riff A
frío de visturí....
 
*engancha con..


ESTRIBILLO 2: igual

BAJO:   la         la          la             la
G|----------------------------------------------------|
D|----------------------------------------------------|
A|----------------------------------------------------|x1
E|---6-5-------6-5-------6-5----------6-5-----|

guitarra:
    la           la            la             la
e|-12-12------12-12------12-12-------12-12----|
B|-13-13------13-13------13-13-------13-13----|
G|-14-14------14-14------14-14-------14-14----|x1
D|-14-14------14-14------14-14-------14-14----|
A|-12-12------12-12------12-12-------12-12----|
E|----------------------------------------------------|

"Maté... y maté... y maté!.....y maté"


VERSO 3 :

BAJO:     
G|---------------------------------------|
D|---------------------------------------|
A|---------------------------------------|x4
E|--5--5-5-5-5-5-5-5---3-3-3--6-3-5--0---|

guitarra:     RIFF "A"
e|---------------------------------------|
B|---------------------------------------|
G|---------------------------------------|x4
D|--2--2-2-2-2-2-2-2--------------2------|
A|--0--0-0-0-0-0-0-0----------1---0------|
E|---------------------3-3-3----3----0---|
       PM...........

GUITARRA 2: sobre la base

e|-12--10--12--13-|---12---10---12---13--12~--| dejar sonar
B|------------------------|-------------------------------------|
G|------------------------|-------------------------------------|
D|------------------------|-------------------------------------|
A|------------------------|-------------------------------------|
E|------------------------|-------------------------------------|

La Ruta esta repleta pesadilla
de caricaturas album negro
que si pierden el bondi... lobo pajamagia
ni se van a enterar.


ESTRIBILLO 3 PRE_SOLO DE SAXO

es asi ...

BAJO:   la         la          la              
G|-----------------------------------||
D|-----------------------------------||
A|-----------------------------------||x1
E|---6-5-------6-5-------6-5---||

guitarra:
    la           la            la             
e|-12-12------12-12------12-12-||---------------------------------------|
B|-13-13------13-13------13-13-||---------------------------------------|
G|-14-14------14-14------14-14-||13h12^13h12^13h12^13h12-/-7-b--9-----|x1
D|-14-14------14-14------14-14-||---------------------------------------|
A|-12-12------12-12------12-12-||---------------------------------------|
E|-----------------------------------||---------------------------------------|

"Maté... y maté... y maté!


SOLO DE SAXO:

guitarra:                                 SOl    MI       SOl    MI   SOl    MI
e|----------------------------------|----10---7-|----10---7-|-10---7-|
B|----------------------------------|----11---8-|----11---8-|-11---8-|
G|13h12^13h12^13h12^13h12-/-7-b--9|----12---9-|----12---9-|-12---9-|x1
D|--------------------------------9-|----12---9-|----12---9-|-12---9-|
A|--------------------------------7-|----10---7-|----10---7-|-10---7-|
E|----------------------------------|---------------|---------------|------------|

BAJO;

G|----------------------------------|---------------|---------------|------------|
D|-------------

Fuente original ATAME [www.atame.org]
Colaborador original: GUILLE [elguille665@hotmail.com]

Fuente: tusacordes.com