a b c d e f g h i j k l m n o p q r s t u v w x y z 0-9

El Lobo Caido

Patricio Rey Y Sus Redonditos De Ricota

			
Intro
G|-------------------------------------------------------------|
D|----------------------------------------77--77--------77--77-|
A|-------------------------------------------------------------|
E|-5-5555-35-5555-5-5555-35-5555-5-5555-35--55---5555-35--55---|

Verso
G|--------------------------------------------------------|
D|----------77--77---------77--77---------77--77----------|
A|--------------------------------------------------------|
E|-5-5555-35--55--555-666-5--55--555-666-5--55--555-666-5-|

Coro
G|----|----|----|----|
D|----|----|----|----|
A|----|----|----|----|
E|-55-|-55-|-55-|-55-|

Verso
G|--------------------------------------------------------|
D|----------77--77---------77--77---------77--77----------|
A|--------------------------------------------------------|
E|-5-5555-35--55--555-666-5--55--555-666-5--55--555-666-5-|

Coro
G|----|----|----|----|
D|----|----|----|----|
A|----|----|----|----|
E|-55-|-55-|-55-|-55-|

Verso
G|--------------------------------------------------------|
D|----------77--77---------77--77---------77--77----------|
A|--------------------------------------------------------|
E|-5-5555-35--55--555-666-5--55--555-666-5--55--555-666-5-|

Coro
G|----|----|----|----|
D|----|----|----|----|
A|----|----|----|----|
E|-55-|-55-|-55-|-55-|

Solo de Guitarra
G|----------------|x4 |------|x8
D|----------------|   |------|
A|----------------|   |------|
E|-555555555555-3-|   |-5-55-|

Verso
G|--------------------------------------------------------|
D|----------77--77---------77--77---------77--77----------|
A|--------------------------------------------------------|
E|-5-5555-35--55--555-666-5--55--555-666-5--55--555-666-5-|

Coro
G|----|----|----|----|
D|----|----|----|----|
A|----|----|----|----|
E|-55-|-55-|-55-|-55-|

Verso
G|--------------------------------------------------------|
D|----------77--77---------77--77---------77--77----------|
A|--------------------------------------------------------|
E|-5-5555-35--55--555-666-5--55--555-666-5--55--555-666-5-|

Coro
G|----|----|----|----|
D|----|----|----|----|
A|----|----|----|----|
E|-55-|-55-|-55-|-55-|

Verso hasta el Final
G|--------------------------------------------------------|
D|----------77--77---------77--77---------77--77----------|
A|--------------------------------------------------------|
E|-5-5555-35--55--555-666-5--55--555-666-5--55--555-666-5-|

Escuchá la canción para saber el ritmo

Fuente original ATAME [www.atame.org]
Colaborador original: Sebastián Vidondo [rojoamargodelsiglo@yahoo.com.ar]

Fuente: tusacordes.com