a b c d e f g h i j k l m n o p q r s t u v w x y z 0-9

El Infierno Esta Encantador Esta Noche

Patricio Rey Y Sus Redonditos De Ricota

			
Intro:                        ___________________________
GUITARRA:   RIFF A           |          RIFF B           |
e|----------------------|--|----------------|-------------|--|----|-----|--|
B|----------------------|--|----------------|-------------|--|----|-----|--|
G|------------------2---|--|----------2-----|------0-2-0--|--|-FA-|-SOL-|--|
D|------3-5-------3--3--|X4|------3-5---3-5-|----3--------|X4|----|-----|X4|
A|----3--------3--------|--|----3-----------|--3----------|--|----|-----|--|
E|--3--------3----------|--|--3-------------|-------------|--|----|-----|--|

GUITARRA 2:                                                    FA        SOL
e|----------------------|--|----------------|-------------|--|1-1--|-3--3-----|--|
B|----------------------|--|----------------|-------------|--|1-1--|-3--3-----|--|
G|----------------------|--|----------2-----|------0-2-0--|--|---------|--#---------|--|
D|-555555---5555555-----|X4|------3-5---3-5-|----3--------|X4|---------|-------55555|X4|
A|----------------------|--|----3-----------|--3----------|--|---------|------------|--|
E|----------------------|--|--3-------------|-------------|--|---------|------------|--|

BAJO:                                                            FA          SOL
G|------------------2---|--|----------2-----|------0-2-0--|--|----------|-------------|--|
D|------3-5-------3--3--|X4|------3-5---3-5-|----3--------|X4|----------|-------------|X4|
A|----3--------3--------|--|----3-----------|--3----------|--|--0-0-3-5-|------3-3-5-0|--|
E|--3--------3----------|--|--3-------------|-------------|--|-1--------|3-3-3--------|--|

SAXO:
E|--------|--|-----------------------|--|
B|--------|--|-8-8-8-8-8---6-8--6-8--|--|
G|--#-----|X4|-----------------------|X4|
D|--------|--|-----------------------|--|
A|--------|--|-----------------------|--|
E|--------|--|-----------------------|--|


Sigue asi....

GUITARRA 1: RIFF C
  LAm SOL  FA  DO    LAm       SOL        FA    DO     LAm        SOl      FA           FA
E|--|---|--------|----------------|----------------|--------------------|---------------15-13-12|
B|--|---|5p3-----|-12-13-15-12----|----------------|13-13--13-12-10/8---|13-13------------------|
G|--|---|----5~|-------------12-|-9h10--9----9~|-----------------9|----------12-14~-------|
D|#-|-#-|--------|----------------|---------10-----|--------------------|-----12-14-------------|
A|--|---|--------|----------------|----------------|--------------------|-----------------------|
E|--|---|--------|----------------|----------------|--------------------|-----------------------|

GUITARRA 2:
    LAm   SOL   FA    DO                   FA
E|-0--|-3-|-1-|-0-|--|-----|-----|----------------------------------|
B|-1--|-3-|-1-|-1-|--|-----|-----|----------------------------------|
G|-2--|-0-|-2-|-0-|X3|-LAm-|-SOL-|----------------------------------|
D|-2--|-0-|-3-|-2-|--|-----|-----|-3-3-3-3-3-3-3-3-3-3-3-3-3-3-3-3--|
A|-0--|-2-|-3-|-3-|--|-----|-----|-3-3-3-3-3-3-3-3-3-3-3-3-3-3-3-3--|
E|------|-3-|-1-|-----|--|-----|-----|-1-1-1-1-1-1-1-1-1-1-1-1-1-1-1-1--|

BAJO:
G|------|-----|-----|-----|--|-----|-----|----------------------------------|
D|------|-----|-----|-----|X3|-----|-----|----------------------------------|
A|------|-----|-----|03333|--|-----|-----|----------------------------------|
E|--5---|--3--|01111|-----|--|--5--|--3--|-1-1-1-1-1-1-1-1-1-1-1-1-1-1-1-1--|


[REPITE RIFF B ]X2


VERSO 1: CON RIFF B X4

Son por acaso ustedes hoy
un publico respetable
pueden acaso beber el vino
por ustedes envasado.

PRE_ESTRIBILLO: [FA - SOL] X4


  Fa           SOL
Puede alguien decirme 
  Fa           SOL
me voy a comer tu dolor
  Fa      SOL
y repetirme 
  Fa            SOL
te voy a salvar esta noche


ESTRIBILLO 1: RIFF C
pero..
GUITARRA 1: hace
 LAm SOL  FA  DO    LAm    SOL        FA    DO     LAm    SOl  FA       FA
E|--|---|--------|-------|-----|-----3-|------|------|-----|-------|------|-0-----1-----|
B|--|---|5p3-----|-------|-----|---------|------|------|-----|5p3----|------|---0----1----|
G|--|---|----5~|-------|-----|-5-3-----|------|------|-----|---5~|------|----0----2-|
D|#-|-#-|--------|-------|-----|---------|------|------|-----|-------|------|-------------|
A|--|---|--------|-------|-----|---------|------|------|-----|-------|------|-------------|
E|--|---|--------|-------|-----|---------|------|------|-----|-------|------|-------------|

LAm      SOL       Fa     DO
El infierno esta encantador
LAm      SOL       Fa       DO
este infierno esta embriagador
LAm     SOl       Fa      DO
esta noche esta encantador
LAm     SOl       Fa       
tu infierno esta encantador    ˇEsta noche!


PUENTE: RIFFB X2


VERSO 2: CON RIFF B X4

Por que no te dejas de pensar
en labios que besan frio
para cerrar un ojo y ver 
cuantos cuernos tiene el diablo


PRE_ESTRIBILLO 2: [FA - SOL] X4

  Fa           SOL
Puede alguien decirme 
  Fa           SOL
me voy a comer tu dolor
  Fa      SOL
y repetirme 
  Fa            SOL
te voy a salvar esta noche


ESTRIBILLO 2:

LAm      SOL       Fa     DO
El infierno esta encantador
LAm      SOL       Fa       DO
este infierno esta embriagador
LAm     SOl       Fa      DO
esta noche esta encantador
LAm     SOl       Fa       
tu infierno esta encantador    ˇEsta noche!


SOLO DE GUITARRA:

BAJO:    RIFF A              
G|------------------2---|--|
D|------3-5-------3--3--|X8|
A|----3--------3--------|--|
E|--3--------3----------|--|

GUITARRA 2:   RIff A
e|----------------------|--|
B|----------------------|--|
G|------------------2---|--|
D|------3-5-------3--3--|X8|
A|----3--------3--------|--|
E|--3--------3----------|--|


GUITARRA 1 solo
  ___________________X2___________                     
E|--------------|--|--------------| |-7-5--7-5--|---7---8p7---------5-----|--|  |-5-5-5--5-5-|
B|--8-8-8-8-|--|---------6~-| |-8-6--8-6--|-----8-----8---------6---|--|  |-6-6-6--6-6-|
G|--7-7-7-7-|X3|-7p5p4--------| |-7-5--7-5--|-7-----------7-/-5-----5-|X3|  |-5-5-5--5-5-|
D|--5-5-5-----|--|-------5------| |-----------|-------------------------|--|  |--------------|
A|--------------|--|--------------| |-----------|-------------------------|--|  |--------------|
E|--------------|--|--------------| |-----------|-------------------------|--|  |--------------|

E|-------------3-----3-----3-|-1-1-1---1-3-|-----3---3-----3-|
B|-------------3--3--3--3--3-|-1-1-1---1-3-|--3--3---3-----3-|
G|-5~---3h4-----3-----3------|---------------|--3----3----3------|
D|-----------------------------|---------------|-------------------|
A|-----------------------------|---------------|-------------------|
E|-----------------------------|---------------|-------------------|


repite RIFF C

GUITARRA 1: RIFF C
  LAm SOL  FA  DO    LAm       SOL        FA    DO     LAm        SOl      FA           FA
E|--|---|--------|----------------|----------------|--------------------|---------------15-13-12|
B|--|---|5p3-----|-12-13-15-12----|----------------|13-13--13-12-10/8---|13-13------------------|
G|--|---|----5~|-------------12-|-9h10--9----9~|-----------------9|----------12-14~-------|
D|#-|-#-|--------|----------------|---------10-----|--------------------|-----12-14-------------|
A|--|---|--------|----------------|----------------|--------------------|-----------------------|
E|--|---|--------|----------------|----------------|--------------------|-----------------------|

GUITARRA 2:
    LAm   SOL   FA    DO                   FA
E|-0--|-3-|-1-|-0-|--|-----|-----|----------------------------------|
B|-1--|-3-|-1-|-1-|--|-----|-----|----------------------------------|
G|-2--|-0-|-2-|-0-|X3|-LAm-|-SOL-|----------------------------------|
D|-2--|-0-|-3-|-2-|--|-----|-----|-3-3-3-3-3-3-3-3-3-3-3-3-3-3-3-3--|
A|-0--|-2-|-3-|-3-|--|-----|-----|-3-3-3-3-3-3-3-3-3-3-3-3-3-3-3-3--|
E|------|-3-|-1-|-----|--|-----|-----|-1-1-1-1-1-1-1-1-1-1-1-1-1-1-1-1--|

BAJO:
G|------|-----|-----|-----|--|-----|-----|----------------------------------|
D|------|-----|-----|-----|X3|-----|-----|----------------------------------|
A|------|-----|-----|03333|--|-----|-----|----------------------------------|
E|--5---|--3--|01111|-----|--|--5--|--3--|-1-1-1-1-1-1-1-1-1-1-1-1-1-1-1-1--|

PUENTE: RIFFB X2


VERSO 3: CON RIFF B X4

Por que no te dejas de pensar
en labios que besan frio
para cerrar un ojo y ver 
cuantos cuernos tiene el diablo


PRE_ESTRIBILLO 3: [FA - SOL] X4

  Fa           SOL
Puede alguien decirme 
  Fa           SOL
me voy a comer tu dolor
  Fa      SOL
y repetirme 
  Fa            SOL
te voy a salvar esta noche


ESTRIBILLO 3:

LAm      SOL       Fa     DO
El infierno esta encantador
LAm      SOL       Fa       DO
este infierno esta embriagador
LAm     SOl       Fa      DO
esta noche esta encantador
LAm     SOl       Fa       
tu infierno esta encantador    ˇEsta noche!


FINAL:

Guitarra:
E|--------------|
B|--------------|
G|--------------|
D|------3-5-----|
A|----3---------|
E|--3--------3--|

BAJO:
G|--------------|
D|------3-5-----|
A|----3---------|
E|--3--------3--|

fin.

Fuente original ATAME [www.atame.org]
Colaborador original: Guille [elguille665@hotmail.com]

Fuente: tusacordes.com