a b c d e f g h i j k l m n o p q r s t u v w x y z 0-9

El Arte Del Buen Comer

Patricio Rey Y Sus Redonditos De Ricota

			
El arte del buen comer

Intro:Em-G-Em-G-Em-Bb x2 o riff 1 x2
      
      Em-G-Em-G-Em-G-Em-Bb o riff 2
      Em-G-Em-G-Em-Bb x2

Como Intro
Pituca cree que es el mejor, 
el mejor culo para su sillón
  Fm#                            B     B-A-G-Fm#-Em
y sabe bien que hoy su chance es gorda.

Como Intro
Le ha puesto al fin su nombre al toallón, 
compró marfiles de la selva del Congo
  Fm#           Riff 3        B     riff 4
y en su coco simpre hay un petardo.

C          A             
Rodeado de grandanesas 
C             Briff 5  
que se salen de la blusa
 Criff 6     Briff 5
con bestial dulzura, rush  
   Criff 6    Briff 5
y risas de Barón V 
B-A-G-Fm#-Em
 y así Pituca se la cree.

Aún ayer no ligaba el amor, 
y no enceraba nunca el bastón,
su boca olía como un cenicero.

Tuvo un golpe de audacia y se dió 
de timbero fogoso y feroz 
de los que nunca muestran todo el mazo.

Y hoy come la real manzana y no deja ni pepita, 
usa sal de melodrama, pero sin abusar
y así Pituca se la cree

Solo:A (A#-B-C-B) A Em Bb A B(B-A-G-Fm#-Em) Bb

Pituca insiste en que es el mejor, 
el mejor culo para su sillón
y sabe bien que hoy su chance es gorda.

Y hoy come la real manzana y no deja ni pepita, 
usa sal de melodrama, pero sin abusar
y así Pituca se la cree

Final:B-A-G-Fm#-Em

    Acordes:
    Em       G        Bb       Fm#      B        C        A        A#
# E-------------------1----------------------------------------------- 
# B-------------------3----------------------------------------------- 
# G-------------------3----------------------------------------------- 
# D-2--------5--------3--------4--------9--------10-------7--------8-- 
# A-2--------5--------1--------4--------9--------10-------7--------8-- 
# E-0--------3-----------------2--------7--------8--------5--------6--



Riff 1:

|---------------------------|
|----------------------3-3--|
|----------------------3-3--|
|---------------------------|
|---------------------------|
|-0-0-3-3-0-0-3-3-0-0-------|

Riff 2:

|---------------------------------|
|-----------------------------3-3-|
|-----------------------------3-3-|
|---------------------------------|
|---------------------------------|
|-0-0-3-3-0-0-3-3-0-0-3-3-0-0-----|

Riff 3:

|-2------|---
|---2----|---
|-----2--|---
|--------|---
|--------|---
|--------|---

Riff 4:

|-2-----|---
|---4---|---
|-----4-|---
|-------|---
|-------|---
|-------|---

Riff 5:

---------------------|-----
-4---4---4---4---4---|-----
---4---4---4---4---4-|-----
---------------------|-----
---------------------|-----
---------------------|-----

Riff 6:
                                    Em  G  F#m Bb   B   C   A#  A
----------------------|----        -0-|-3-|-2-|-x-|-2-|-0-|-6-|-0-|-
-1---1---1----1---1---|----        -0-|-0-|-2-|-3-|-4-|-1-|-6-|-2-|-
---2---2---2----2---2-|----        -0-|-0-|-2-|-3-|-4-|-0-|-7-|-2-|-
----------------------|----        -2-|-0-|-4-|-3-|-4-|-2-|-8-|-2-|-
----------------------|----        -2-|-2-|-4-|-1-|-2-|-3-|-8-|-0-|-
----------------------|----        -0-|-3-|-2-|-x-|-x-|-x-|-6-|-x-|-

Fuente original ATAME [www.atame.org]
Colaborador original: Curda [santi_elquemero hotmail.com]

Fuente: tusacordes.com