a b c d e f g h i j k l m n o p q r s t u v w x y z 0-9

El Arte Del Buen Comer

Patricio Rey Y Sus Redonditos De Ricota

			
el Intro es de Guitarra

*
 Pre-Verso x1
G|-----------------------------|----------------------|
D|-----------------------------|----------------------|
A|--------------------------22-|------------------2/x-|
E|-00-33--00-33--00-33--00-----|-00-33--00-33--0------|

*
 Verso x2 la 2° vez, sin la última parte 
G|--------------------------|------------------------|
D|--------------------------|------------------------|
A|-----------------------22-|------------------2--22-|
E|-0033--0033--0033--00-----|-00-33--00-33--00-------|

 |---------------------------------------------|
 |---------------------------------------------|
 |-------------------------------2--2-2-2--2-2-|
 |-2--2-2-2--2-2--2--2-2-2--2-2----------------|

 |-----------------|
 |-----------------|
 |-22-00-----------|
 |-------33-11-00--|

*
 Coro x1
G|----------------------------------------|
D|----------------------------------------|
A|-3-333-33--0-000-00--3-333-33--2-222-22-|
E|----------------------------------------|
 		
 |----------------------------------------|
 |----------------------------------------|
 |-3-333-33--2-222-22--3-333-33--2-222-22-|
 |----------------------------------------|

 |-----------------|
 |-----------------|
 |-22-00-----------|
 |-------33-11-00--|
	
*
 Pre-Verso x1
*
 Verso x2
*
 Coro x1

*
 Riff del Solo de Saxo
G|-------------------------------|
D|-------------------------------|
A|-0x10-0-11--1-22--2-33--3-22-|
E|-------------------------------|

 |-------------------------------|
 |-------2x6-------------------|
 |-0x6-------1x3-0x3-2x3-|
 |-------------------------------|

 |-----------------|
 |-----------------|
 |-22-00-----------|
 |-------33-11-00--|

 Final del solo
 |-------------------------------|-----------------|
 |-------2x6-------------------|-----------------|
 |-0x6-------1x3-0x3-2x3-|-22-00-----------|
 |-------------------------------|-------33-11-00--|

*
 Pre-Verso x1
*
 Verso x2
*
 Coro x1

Escuchá la canción para saber el ritmo

Fuente original ATAME [www.atame.org]
Colaborador original: Sebastián Vidondo [rojoamargodelsiglo@yahoo.com.ar]

Fuente: tusacordes.com