a b c d e f g h i j k l m n o p q r s t u v w x y z 0-9

El Arte Del Buen Comer

Patricio Rey Y Sus Redonditos De Ricota

Am
C
B
Em
			
 INTRO

                                           __
--------------------v----v-----------------  |
---------------------3-3---3-3-------------  |
---------------------3-3---3-3-------------  |
-------------------------------------------  | X3
-------------------------------------------  |
-0-0-3-3-0-0-3-3---------------------------  |
                                           ¯¯
-------------------------------------------  
-------------------------------------------  
-------------------------------------------  
------------------------------------------- 
-------------------------------------------  
-0-0-3-3-0-0-3-3---0-----------------------

               RIFF
-------------------------------------------  
-------------------------3-3---------------  
-------------------------3-3---------------  
------------------------------------------- 
-------------------------------------------  
-0-0-3-3-0-0-3-3---0-----------------------


[con riff o E5]
Pituca cree que es el mejor,
el mejor culo para su sillon
   
  F#5                             B5
Y sabe bien que hoy su chance es gorda

[con riff o E5]
Le ha puesto al fin, su nombre al toallon
compro marfiles de la selva del Congo

  F#5                        B5
y en su coco siempre hay un petardo

C5              A5
  Rodeado de grandanesas
C5             B5
  que se salen de la blusa
Am               B5
  con bestial dulzura
         C                B5
rouge y risas de Baron B 
 A5  C     F#5   E5
Asi pituca se la cree

Aun aller no ligaba el amor
y no enceraba nunca el baston,

su boca olia como un cenicero 

Tuvo un golpe de audacia 
y se dio, dede timbero fogoso y feroz

de los que nunca muestran todo el mazo

Y hoy come la gran manzana
y no deja ni pepita
usa sal de melodrama
pero sin abusar...

                [Am Em Am C B5]
y asi pituca se la cree 

Fuente original ATAME [www.atame.org]
Colaborador original: Julián [megadriver22@hotmail.com]

Fuente: tusacordes.com