a b c d e f g h i j k l m n o p q r s t u v w x y z 0-9

El Arbol Del Gran Bonete

Patricio Rey Y Sus Redonditos De Ricota

Am
Bb
G
F
C
			
 Intro   Riff [F5 E5 A5 F5]

Riff2 [E5 B5 F5 F5/C]
Su cuchillo de herrero afilo
el señor de los cielos
miren lo que este bicho logro
al confiar en sus sueños.

Con Riff 
Soy jocker comodin
en la estrella del sur.

Sacudio el arbolcayo
un fruto dulce muy raro
tropece con mis ganglios 
y vi que morderlo era caro.

Soy un jocker de burlon
de la estrella del sur

Solo: [Am Bb]x3
Am [G F] x3
Am Bb Am

Pida lo que ested quiera, señor
el limite es el cielo, señor
de un dios nuevo, mejor hecho
y bajo nuestro pulgar.

Riff3 [C E5 A5 F5]

Volvere a sumergirme, señor
en este rio loco?
tiene usted para mi alguna luz 
en esta noche eterna?

ya me harto la funcion 
en la estrella del sur

Solo: Riff2

----------------------------------------
----------------------------------------
---------------------------------------- RIFF
--3---0-3--3---0-3--2-0---------3---0-3- 
----3--------3----------3-2--0----3-----
----------------------------------------

------------------------------
------------------------------
------------------------------ RIFF2
------------------------------
-----2-----3-----2-3-2-----3-- x2
-1-1---1-1---1-1-------1-1----

---------------------------------------
---------------------------------------
--------------------------------------- RIFF3
-------------------2-0---------3---0-3-
-3---0-3--3---0-3------3-2--0----3-----
---0--------0--------------------------

Vamos los Redondos!!! 

Fuente original ATAME [www.atame.org]
Colaborador original: Ariel [Ariel_1978@yahoo.com.ar]

Fuente: tusacordes.com