a b c d e f g h i j k l m n o p q r s t u v w x y z 0-9

Drogocop

Patricio Rey Y Sus Redonditos De Ricota

			
Intro **2VECES**
G|------------|x3 |------------|
D|------------|   |------------|
A|----55----3-|   |---5-555555-|
E|-33----33---|   |-3----------|

Verso --> no hay bajo

Coro
G|------------|x3 |------------|
D|------------|   |------------|
A|----55----3-|   |---5-555555-|
E|-33----33---|   |-3----------|

Verso --> no hay bajo

Puente
G|-----------|x3 |-------------|
D|-----------|   |-------------|
A|------1111-|   |-----------5-|
E|-3333------|   |-555555555---|

Solo
G|----------|x4
D|----------|
A|----------|
E|-555555-3-|

Coro
G|------------|x3 |------------|
D|------------|   |------------|
A|----55----3-|   |---5-555555-|
E|-33----33---|   |-3----------|

Verso --> no hay bajo

Coro
G|------------|x3 |------------|
D|------------|   |------------|
A|----55----3-|   |---5-555555-|
E|-33----33---|   |-3----------|

Puente
G|-------------------|x2
D|-------------------|
A|-77777777-11111111-|
E|-------------------|

 |-----------|x3 |----------|
 |-----------|   |----------|
 |------1111-|   |----------|
 |-3333------|   |-55555555-|

Final
G|-------------|
D|-------4-3-2-|**hasta el final, muchas veces**
A|-------------|
E|-55555-------|

Escuchá la canción para saber el ritmo

Fuente original ATAME [www.atame.org]
Colaborador original: Sebastián Vidondo [rojoamargodelsiglo@yahoo.com.ar]

Fuente: tusacordes.com