a b c d e f g h i j k l m n o p q r s t u v w x y z 0-9

Doctor Saturno

Patricio Rey Y Sus Redonditos De Ricota

			
Intro:
GUITARRA:_
    ____________X2________________    _______________________X2______________________________
   |         RIFF A               |  |                      Riff B                            |
e|-----------|--|------------------||-------------|-------------|------------|-----15p13--------|
B|-----------|--|------------------||-----12h13p12|-------------|----12h13p12|----------15p13-15|
G|---10------|X3|------------------||---10--------|--12-10h12p10|--12--------|------------------|
D|-12---10-9-|--|------10-12-9-----||-12----------|12-----------|12----------|12~-------------|
A|-----------|--|-10-8---------8-||-------------|-------------|------------|------------------|
E|-----------|--|------------------||-------------|-------------|------------|------------------|

*EL BAJO ESTA AFINADO EN RE EN LA 4ta CUERDA
G|------------|----------|---------|------------------|---|
D|------------|----------|---------|------------------|---|
A|------------|----------|---------|------------------|X2-|
D|--0--3-33-|--0--5-3--|-0--5-3--|-0--0-3-0-3-0-3-0-|---|

GUITARRA 2: hace esto durante la intro... con algun efecto raro
e|---------------------|
B|---------------------|
G|---------------------|VARIAS VECES
D|----5--3-------------|
A|-5-------------------|
E|---------------------|

y sigue asi:
GUITARRA:
         RIff C                          Riff D
e|---------------------------------|--|----------------|----------------|-----------------------
B|---------------------------------|--|----------10-10-|----------12-12-|-----------------------
G|---10-12-13-12-10-----10-12-13-|X2|--10------10-10-|--10------12-12-|--10-------------------
D|-12----------------12------------|--|12---10-9-------|12---10-9-------|12--10-9-----10-12-9---
A|---------------------------------|--|----------------|----------------|--------10-8--------8
E|---------------------------------|--|----------------|----------------|-----------------------

----15p13-------------|
-----------15p13-15~|
----------------------|
12~-------------------|
----------------------|
----------------------|

*EL BAJO ESTA AFINADO EN RE EN LA 4ta CUERDA
G|------------|----------|---------|------------------|---|
D|------------|----------|---------|------------------|---|
A|------------|----------|---------|------------------|X2-|
D|--0--3-33-|--0--5-3--|-0--5-3--|-0--0-3-0-3-0-3-0-|---|



VERSO 1:
[con RIFF B ] X2

Estoy hasta la pasta
De misas cómicas, mal.
A prueba de bobos y a las tres en casa.
¿Querés creer? Oh, no.

BAJO: 4ta afinada en RE
G|---------------|
D|---------------|X4
A|---------------|
D|--0--3-4-5--0--|


PUENTE: riff CX2
BAJO:
G|------------|----------|---------|------------------|---|
D|------------|----------|---------|------------------|---|
A|------------|----------|---------|------------------|X1-|
D|--0--3-33-|--0--5-3--|-0--5-3--|-0--0-3-0-3-0-3-0-|---|

GUITARRA:
        RIff C                          
e|---------------------------------|--|
B|---------------------------------|--|
G|---10-12-13-12-10-----10-12-13-|X2|
D|-12----------------12------------|--|
A|---------------------------------|--|
E|---------------------------------|--|


ESTRIBILLO 1: Con riff D ]X1

GUITARRA:
         RIff D                          
e||----------------|----------------|-----------------------|----15p13-------------|
B||----------10-10-|----------12-12-|-----------------------|-----------15p13-15~|
G||--10------10-10-|--10------12-12-|--10-------------------|----------------------|
D||12---10-9-------|12---10-9-------|12--10-9-----10-12-9---|12~-----------------|
A||----------------|----------------|--------10-8--------8|----------------------|
E||----------------|----------------|-----------------------|----------------------|

BAJO:
G|------------|----------|---------|------------------|---|
D|------------|----------|---------|------------------|---|
A|------------|----------|---------|------------------|X1-|
D|--0--3-33-|--0--5-3--|-0--5-3--|-0--0-3-0-3-0-3-0-|---|


"Dr. Saturno, dame un turno.
Te pido una mejoría."


VERSO 2  Igual  

[Con Riff B]X2
Estoy meando la puerta
En tu cueva, doctor de amor.
Los remos muy pinchados
A la moda del rock n? roll.

PUENTE RIFF c X2


ESTRIBILLO 2 Igual

[Con Riff d]
Me cago en mis huesos que gastan la pana
Mojada en vinagre de nostalgias.

VERSO 3

 riff B x1 y despues

GUITARRA:
              DO5                           SOL 
e|--------7h8p7-|--------------|---------------|-----15p13------------|
B|--------------|--------------|------12h13p12-|-----------15p13-15-|
G|-----5--------|----5--3h5p3--|---12----------|----------------------|
D|-----5--------|----5---------|-12------------|-12-------------------|
A|--3-----------|--3-----------|---------------|----------------------|
E|--------------|--------------|---------------|----------------------|

BAJO:       DO                        SOL
G|--------------|--------------|-----------------|---------|
D|--------------|--------------|-----------------|---------|
A|-3-3-1--0-1-3-|-3-3-1--0-1-3-|-----------------|---------|
D|--------------|--------------|--5-5--3--0-3-5--|--5-5-3--|


RIFF B
"Voy ciego, tonteando
En la Orquesta Antibalas, no, no."

DO5
 Vinos gruesos, mal templados
SOL
 Y ecos de Reputalandia trip


SOLO DE BAJO:

GUITARRA:
e|-------------|| 
B|-------------|| 
G|-7------9--|| X4
D|---9--9--|| 
A|-------------|| 
E|-------------|| 

BAJO: afinado en re    con SLAP s 

     s  p p    s  p s  p  s p    s  p p    s  p  s  p s s
 G|----------------------------|---------------------------|
 D|-----2---------2----0-------|----2---------5------------|X2
 A|-------5/----------------2--|------5/------------5------|
D*|--2---------2----2-----2----|--2--------2-----2----2-5--|


PUENTE 3:
BAJO:
G|------------|----------|---------|------------------|---|
D|------------|----------|---------|------------------|---|
A|------------|----------|---------|------------------|X2-|
D|--0--3-33-|--0--5-3--|-0--5-3--|-0--0-3-0-3-0-3-0-|---|

GUITARRA:
e|----------------------------|----------------------------------|-----y------|
B|----------------------------|----------------------------------|---Riff-D---|
G|---7-9-10-9-7----7-9-10~--|----10-12-13-12-10-----10-12-13-|----X-1-----|
D|-9------------9-------------|-12----------------12-------------|------------|
A|----------------------------|----------------------------------|------------|
E|----------------------------|----------------------------------|------------|

VERSO 4:

BAJO: 4ta afinada en RE
G|---------------|
D|---------------|X4
A|---------------|
D|--0--3-4-5--0--|

GUITARRA:          RIFF E
e|----------|------------|------------|------------|-------15p13------------|
B|----#-----|------------|------------|------------|-------------15p13-15-|
G|-silencio-|----12-10-|----12-10-|----12-10-|------------------------|
D|----------|--12--------|-12---------|-12---------|12~-------------------|
A|----------|------------|------------|------------|------------------------|
E|----------|------------|------------|------------|------------------------|--


Silencio
No marcho en mi vieja murga
Y en las calles no me muestro más.

RIFF E
Están mis muertos, tan, tan lejos
De la pantalla en que vos te mirás



PUENTE: RIFF C X2


ESTRIBILLO 3 igual Riff D
El hígado crece, el cerebro envejece
Y hay algo muy raro en mi plato.


VERSO 5 igual Riff B

Saturno, dame un turno.
Yo espero, con vos, mejorar.
Dulce cadena, dulce condena.
Dios es todo, no puede progresar.


PUENTE: RIFF C X2


ESTRIBILLO  4 igual  riff D
Dr. Saturno, dame un turno.
Te pido una leve mejoría.


FINAL:

RIFF D X 4
RIFF A X 2

y  
   e|--------------|
   b|--------------|
   G|----10--------|
   D|-12----10--9--|X1
   A|--------------|
   E|--------------|

fin.

Fuente original ATAME [www.atame.org]
Colaborador original: Guille [elguille665@hotmail.com]

Fuente: tusacordes.com