a b c d e f g h i j k l m n o p q r s t u v w x y z 0-9

Divina Tv Fuhrer

Patricio Rey Y Sus Redonditos De Ricota

			
Intro:

GUITARRA 1:             ___________________PARTE 1_____________
        MI             |              .___________X4__________.|
E|-------------------||--12-12b~-/-||-------------------------||
B|-------------------||--------------||---------------------5~||
G|-9-9-9-9-9-9-9-9---||--------------||---------------------5~||
D|-9-9-9-9-9-9-9-9-ƒ-||--------------||-7-5-7-5-7-5-7-----5-----||
A|-7-7-7-7-7-7-7-7---||--------------||---------------5-5-------||
E|-------------------||--------------||-------------------------||

GUITARRA 2:             ___________________PARTE 1_____________
        MI             |              .___________X4__________.|
E|-------------------||--------------||-------------------------||
B|-------------------||--------------||---------------------5~||
G|-9-9-9-9-9-9-9-9---||------5-7-5-7-||---------------------5~||
D|-9-9-9-9-9-9-9-9---||-5/-7---------||-7-5-7-5-7-5-7-----5-----||
A|-7-7-7-7-7-7-7-7---||--------------||---------------5-5-------||
E|-------------------||--------------||-------------------------||

                        ______________X4___________________
   BAJO:               |   LA              RE              | parte 1
G|-------------------||---------------|---------------------||
D|-----------------ƒ-||---------------|---------------------||
A|-7-7-7-7-7-7-7-7---||---------------|-5--5-55--5-5-3-0----||
E|-------------------||-5--5-55--5-5--|---------------------||


PARTE 2:
********
               
GUITARRA 1:   RE                  RE                   RE                 MI
E|--------------------------.--5-5--5-5------------------------------|--------------------|
B|--------------------------.--5

Fuente original ATAME [www.atame.org]
Colaborador original: Guille [elguille665@hotmail.com]

Fuente: tusacordes.com