a b c d e f g h i j k l m n o p q r s t u v w x y z 0-9

Divina Tv Fuhrer

Patricio Rey Y Sus Redonditos De Ricota

			
intro
E-----------------/-------------/
B-----------------/-------------/
G-----------------/-------------/
D-9-9-9-9-9-9-9-9-/-----5-7-5-7-/
A-7-7-7-7-7-7-7-7-/-57---------/
E-----------------/-------------/

riff 1 sobre la base de la estrofa
E-----------------------/X4
B-----------------------/
G---------------------5-/
D-7-5-7-5-7-5-7-0-0-5---/
A-----------------------/
E ----------------------/

riff 2 SOBRE ESTRIBILLO
E--------------/----------------------------------/---------------------/
B--------------/----------------------------------/---------------------/
G--------------/----------------------------------/---------------------/
D--------------/----------------------------------/-----9-9-9-9-9-9-9-9-/
A-7-6-5--7-6-5-/-5-3-0---------------0-3-5--0-3-5-/-57-7-7-7-7-7-7-7-7-/
E--------------/--------0-3-5-0-3-5---------------/---------------------/

SOLOSOBRE RIFF 2
E-----------------------------/-----------------------------/--------------/--------------------------/
B-----7-------------7-----9-7-/-10--10-10-10-10-8-7---------/--------------/--------------------------/
G-79---9-7-9---79---9-7-----/--9---9--9--9--9-----9-5-6---/-7e-5---5-7-5-/-7e-5---9-8-7---------9---/
D-----------------------------/---------------------------7-/------7-------/------7-------10-7-10-----/
A-----------------------------/-----------------------------/--------------/--------------------------/
E-----------------------------/-----------------------------/--------------/--------------------------/

bueno espero que suene precido ,la letra e 7esignifica que se debe estirara la cuerda , sluds a los 
lcoos de los attes

Fuente original ATAME [www.atame.org]
Colaborador original: julio ernesto romero [jer20@hotmail.com]

Fuente: tusacordes.com