a b c d e f g h i j k l m n o p q r s t u v w x y z 0-9

De Esos Polvos Futuros Lodos

Patricio Rey Y Sus Redonditos De Ricota

			
Hola soy Franco Damian Y aca les mando la intro de esta cancion de Los Redondos que
Esta de 1ª.
	
Intro                            
Riff 1
e-----------------------------------
B-5--3--0-0--5--3-------------------
G-----------------------------------
D-----------------------------------
A-----------------------------------
E-----------------------------------

Riff 2
e-----------------------------------
B-0h5--7--8--7--3-------------------
G-----------------------------------
D-----------------------------------
A-----------------------------------
E-----------------------------------

Riff 3
e-------------------------------------------------
B-3--5--0--3--5-------12h10--10h12--12h10--10h12--
G-------------------------------------------------
D-------------------------------------------------
A-------------------------------------------------
E-------------------------------------------------

Riff 4
e-----------------------------------
B-10--8--7--5---10--8--7--5-5-------
G-----------------------------------
D-----------------------------------
A-----------------------------------
E-----------------------------------

Riff 5
e-----------------------------------
B-10--8--7--5---10--8--7--5-12------
G-----------------------------------
D-----------------------------------
A-----------------------------------
E-----------------------------------

Cualquier duda mandenmen un e-mail.

Fuente original ATAME [www.atame.org]
Colaborador original: Franco Damian Roscino [redondo_rey@hotmail.com]

Fuente: tusacordes.com