a b c d e f g h i j k l m n o p q r s t u v w x y z 0-9

De Esos Polvos Futuros Lodos

Patricio Rey Y Sus Redonditos De Ricota

			
DE ESOS POLVOS FUTUROS LODOS 

 INTRO

E-------------------------------------------------------------
B--------------------2--3--5--3--2--------2--3--5--3--2-------
G--5--3--5--3--3--5-----------------3--5----------------------
D-------------------------------------------------------------
A-------------------------------------------------------------
E-------------------------------------------------------------

E-------------------------------------------------------------
B---------------7--5-----5---7--5-----5------------------------
G--3--5--3--5---------7-----------7---------------------------
D-------------------------------------------------------------
A-------------------------------------------------------------
E-------------------------------------------------------------

E-------------------------------------------------------------
B--5--3--------5--3------------5--3---------5--3--------7-----
G--------6--5--------6--5--5---------6--5---------6--5--------
D-------------------------------------------------------------
A-------------------------------------------------------------
E-------------------------------------------------------------

Em
El perro bobi es 
                    Bm
un servicio de amor a todo rock,
Em
canta como un león,
                      Bm
pero es el más salmón de la ciudad,

C                           Em
Bailen lo que bailen los demás,
C                           Em
bailen lo que bailen los demás.



Chunga combinación de polvos
que darán lodo después,
mágico inter - terror más arma
blanca en cruda pasión,
Caguen lo que caguen los demás,
caguen lo que caguen los demás.

 

Una pápela por el walkman,
que chorizó tu hermanito
el perro cruzó los pies,
su sonrisa ofertó y la vendió,
Ladren lo que ladren los demás,
ladren lo que ladren los demás.

 

El perro bobi es...

Sebastian - Bella Vista - Argentina
si hacen algun cambio mandenmelo gracias

Fuente original ATAME [www.atame.org]
Colaborador original: Sebastian Velasquez [sebave@uol.com.ar]

Fuente: tusacordes.com