a b c d e f g h i j k l m n o p q r s t u v w x y z 0-9

Cua Cua Amen

Patricio Rey Y Sus Redonditos De Ricota

			
Intro
G|-------|---------|----------------------------|
D|-------|---------|----------------------------|
A|-------|---------|----------------------------|
E|-2-0-2-|-2-0-2-0-|-2-2-0--2-2-0--2-2-0--2-2-0-|

Verso
G|----------------------------|
D|----------------------------|
A|----------------------------|
E|-2-2-0--2-2-0--2-2-0--2-2-0-|

Coro
G|---------------------------------|--------------------------------|
D|---------------------------------|--------------------------------|
A|---------------------------------|--------------------------------|
E|-5-5-3-3--5-5-3--5-5-3-3--5-5-3--|-7-7-5-5--7-7-5--7-7-5-5--7-7-5-|

Puente
G|----------------------------|
D|----------------------------|
A|----------------------------|
E|-2-2-0--2-2-0--2-2-0--2-2-0-|

Verso
G|----------------------------|
D|----------------------------|
A|----------------------------|
E|-2-2-0--2-2-0--2-2-0--2-2-0-|

Coro
G|---------------------------------|--------------------------------|
D|---------------------------------|--------------------------------|
A|---------------------------------|--------------------------------|
E|-5-5-3-3--5-5-3--5-5-3-3--5-5-3--|-7-7-5-5--7-7-5--7-7-5-5--7-7-5-|

Puente
G|--------------------|----------------------------|
D|--------------------|----------------------------|
A|--------------------|----------------------------|
E|-2-0--2-0--2-0--2-0-|-2-2-0--2-2-0--2-2-0--2-2-0-|

Verso
G|----------------------------|
D|----------------------------|
A|----------------------------|
E|-2-2-0--2-2-0--2-2-0--2-2-0-|

Coro
G|---------------------------------|--------------------------------|
D|---------------------------------|--------------------------------|
A|---------------------------------|--------------------------------|
E|-5-5-3-3--5-5-3--5-5-3-3--5-5-3--|-7-7-5-5--7-7-5--7-7-5-5--7-7-5-|

Puente
G|----------------------------|
D|----------------------------|
A|----------------------------|
E|-2-2-0--2-2-0--2-2-0--2-2-0-|

Verso
G|----------------------------|
D|----------------------------|
A|----------------------------|
E|-2-2-0--2-2-0--2-2-0--2-2-0-|

Coro
G|---------------------------------|--------------------------------|
D|---------------------------------|--------------------------------|
A|---------------------------------|--------------------------------|
E|-5-5-3-3--5-5-3--5-5-3-3--5-5-3--|-7-7-5-5--7-7-5--7-7-5-5--7-7-5-|

Puente
G|--------------------|
D|--------------------|
A|--------------------|
E|-2-0--2-0--2-0--2-0-|

Solo de Guitarra
G|----------------------------|x4 
D|----------------------------|   
A|----------------------------|   
E|-2-2-0--2-2-0--2-2-0--2-2-0-|   

Puente
G|----------------------------|
D|----------------------------|
A|----------------------------|
E|-2-0--2-2-0--2-2-0--2-2-0-0-|

Verso
G|----------------------------|
D|----------------------------|
A|----------------------------|
E|-2-2-0--2-2-0--2-2-0--2-2-0-|

Coro
G|---------------------------------|--------------------------------|
D|---------------------------------|--------------------------------|
A|---------------------------------|--------------------------------|
E|-5-5-3-3--5-5-3--5-5-3-3--5-5-3--|-7-7-5-5--7-7-5--7-7-5-5--7-7-5-|

Puente
G|------------------------|
D|------------------------|
A|------------------------|
E|-2-0--2-0-0--2-0--2-2-0-|

Verso
G|----------------------------|
D|----------------------------|
A|----------------------------|
E|-2-2-0--2-2-0--2-2-0--2-2-0-|

Coro
G|---------------------------------|--------------------------------|
D|---------------------------------|--------------------------------|
A|---------------------------------|--------------------------------|
E|-5-5-3-3--5-5-3--5-5-3-3--5-5-3--|-7-7-5-5--7-7-5--7-7-5-5--7-7-5-|

Puente
G|--------------------|x4 |---|
D|--------------------|   |---|
A|--------------------|   |---|
E|-2-0--2-0--2-0--2-0-|   |-0-|

Escuchá la canción para saber el ritmo

Fuente original ATAME [www.atame.org]
Colaborador original: Sebastián Vidondo [rojoamargodelsiglo@yahoo.com.ar]

Fuente: tusacordes.com