a b c d e f g h i j k l m n o p q r s t u v w x y z 0-9

Cruz Diablo

Patricio Rey Y Sus Redonditos De Ricota

F
Am
			
Intro:
                                                                               ______x4_______
BAJO:                                                                         |Do     Fa      |
G|----------------------------------|--|----------------------------------|--|-----------------|
D|----------------------------------|x2|----------------------------------|x2|---5----5-3-2-0|
A|--------------3-5-----------------|--|--------------3-5-----------------|--|3---3----------|
E|-5-5-3-0--5-5-----0-0-3-4--0-0-3-0|--|-5-5-3-0--5-5-----0-0-3-4--0-0-3-0|--|-------1-------|

Guitarra 1:    RIFF 1                   do     F   do      F    do    F     do    F
e|---------------------------------|--|--3-----------3-------------3-------------3------|
B|---------------------------------|--|-1-------------1---------------1---------------1---------|
G|---------------------------------|x4|-0-------------0---------------0---------------0---------|
D|---------------------------------|--|-2---3-2-3-2-0-2-----------0---2---2-3-5-3-2-0-2---------|
A|-------------3-5-----------------|--|-3-------------3----0--------0-3---------------3---0-----|
E|5-5-3-0--5-5-----0-0-3-4--0-0-3-0|--|-------------------3--3-1-0-----------------------3-3-1-0|
PM..................................

Guitarra 2:      Am en 3° vuelta de RIFF1     DO             FA
e|-----------|--|---5--5----|--|              |---3---3---|-1-1-1-0---|--|-1-1------|
B|-----------|--|---5--5----|--|              |-1---1-----|---------3-|--|-----3-/--|
G|-----------|x2|---5--5----|x2|              |-----------|-----------|X4|----------|
D|--Silencio-|--|---7-------|--|              |-----------|-----------|--|----------|
A|-----------|--|---7-------|--|              |-----------|-----------|--|----------|
E|-----------|--|---5-------|--|              |-----------|-----------|--|----------|


VERSO 1:

BAJO y guitarra 1:
   LAm                   MI
G|------------------.-----------------|--|
D|------------------.-----------------|x4|
A|--------------3-5-.-----------------|--|
E|-5-5-3-0--5-5-----.-0-0-3-4--0-0-3-0|--|

Guitarra 2:
    LAm       MI
e|---5-5--|--------|--|----------||
B|---5-5--|--6--6--|--|---6-/----||  engancha con estribillo
G|---5-5--|--7--7--|x4|---7-/----||
D|---7----|--6--6--|--|---6-/----||
A|---7----|--7-----|--|----------||
E|---5----|--------|--|----------||


LAm                 MI
     Zippo, que estaba hecho migas
LAm                 MI
     se mandó en una picada,
LAm                 MI
     chistando a su mala sombra
LAm                 MI
     sin copiloto ni nada.


ESTRIBILLO 1:

BAJO:  
     Do          Fa      
G||----------|-------------|
D||----5---|----5-3-2-0--|X4
A||3-----3-|-------------|
E||----------|-1---------|

Guitarra 1:  solamente tocar acordes

  [  do      fa   ] x 4

Guitarra 2:  
     DO             FA
e||---3---3---|-1-1-1-0---|--|-1-1------|
B||-1---1-----|---------3-|--|-----3-/--|
G||-----------|-----------|X4|----------|
D||-----------|-----------|--|----------|
A||-----------|-----------|--|----------|
E||-----------|-----------|--|----------|


DO        FA            DO
   Zippo va camino del infirno
 FA 
cagando leches!
DO           FA             DO
   No supo repartir sus fichas
    FA
y su cielo ennegrece...


VERSO 2:

BAJO 
   LAm                   RE
G|------------------|-----------------|--|
D|------------------|-----------------|x4|
A|--------------3-5-|-5-5-3----5-5-3|--|
E|-5-5-3-0--5-5-----|-------5---------|--|

Guitarra 1:
   LAm                  RE
E|------------------|------------------|--|
B|------------------|------------------|--|
G|------------------|------------------|--|
D|------------------|------------------|x4|
A|--------------3-5-|-5-5-3-0--5-5--3~~|--|
E|-5-5-3-0--5-5-----|------------------|--|

GUITARRA 2:
  LAm                  RE7
E|---5--5---

Fuente original ATAME [www.atame.org]
Colaborador original: Guille [elguille665@hotmail.com]

Fuente: tusacordes.com