a b c d e f g h i j k l m n o p q r s t u v w x y z 0-9

Cruz Diablo

Patricio Rey Y Sus Redonditos De Ricota

			
Cruz diablo						Pablo Bavarisco
Luz belito 1996
Patricio rey y sus redonditos de ricota


Intro 
G|----------------------------------|
D|----------------------------------|  x4
A|--------------3-5-----------------|
E|--5-5-0-0-5-5-----0-0-3-4-0-0-3-4-|

        00:16
G|--------------|
D|---5---3-2-0--| x4
A|-3------------|
E|--------------|

Zippo, que estaba hecho migas.... 00:33
G|----------------------------------|
D|----------------------------------|    x4
A|--------------3-5-----------------|
E|--5-5-0-0-5-5-----0-0-3-4-0-0-3-4-|

        
Zippo va camino del infierno....00:46
G|--------------|
D|---5---3-2-0--| x4
A|-3------------|
E|--------------|

Nunca fue un listo de pesos... 01:02
G|---------------------------7-5----|
D|----------------------------------|    x4
A|-----------------3-5-5---5--------|
E|--5-5-0-0-5-5--5------------------|

Se va gritando cruz diablo....  01:18
G|--------------------7-7h9--------------|
D|------------------7--------------------|
A|-7--7-5-7--7-7-5----------7-5-7--7-7-5-|
E|---------------------------------------|

Punteo
G|----------------------------------|
D|----------------------------------|    x4
A|--------------3-5-----------------|
E|--5-5-0-0-5-5-----0-0-3-4-0-0-3-4-|


El Himno de tangópolis....01:42

G|--------------|
D|---5---3-2-0--| x4
A|-3------------|
E|--------------|

El tipo maduró pronto...01:58
G|----------------------------------|
D|----------------------------------|    x4
A|--------------3-5-----------------|
E|--5-5-0-0-5-5-----0-0-3-4-0-0-3-4-|


Si el perro es manso come ....02:12

G|--------------|
D|---5---3-2-0--| x4
A|-3------------|
E|--------------|

Demasiados los moretones.....02:30
G|---------------------------7-5----|
D|----------------------------------|    
A|-----------------3-5-5---5--------|
E|--5-5-0-0-5-5--5------------------|

muy pocos encantamientos
G|---------------------------5-5-7-7|
D|-------------------------7--------|    
A|-----------------3-5-5------------|
E|--5-5-0-0-5-5--5------------------|

Son tantos los cocineros
G|---------------------------7-5----|
D|----------------------------------|    
A|-----------------3-5-5---5--------|
E|--5-5-0-0-5-5--5------------------|

que joden la sopa.
G|---------------------------5-5-7-7|
D|-------------------------7--------|    
A|-----------------3-5-5------------|
E|--5-5-0-0-5-5--5------------------|

Su Rock and Roll sangra oídos
G|---------------------------7-5----|
D|----------------------------------|    
A|-----------------3-5-5---5--------|
E|--5-5-0-0-5-5--5------------------|

ya que dios le truchó el boleto
G|---------------------------5-5-7-7|
D|-------------------------7--------|    
A|-----------------3-5-5------------|
E|--5-5-0-0-5-5--5------------------|

Zippo, una risa de mil dientes
G|---------------------------7-5----|
D|----------------------------------|    
A|-----------------3-5-5---5--------|
E|--5-5-0-0-5-5--5------------------|

cargados de azufre
G|---------------------------7-5----|
D|----------------------------------|    
A|-----------------3-5-5---5--------|
E|--5-5-0-0-5-5--5------------------|

Punteo     03:00
G|---------------------------5-5-7-7|
D|-------------------------7--------|   x4 
A|-----------------3-5-5------------|
E|--5-5-0-0-5-5--5------------------|
	   03:18
G|---------------------------7-5----|
D|----------------------------------|   x4  
A|-----------------3-5-5---5--------|
E|--5-5-0-0-5-5--5------------------|
	   03:33
G|---------------------------5-5-7-7|
D|-------------------------7--------|   x8 
A|-----------------3-5-5------------|
E|--5-5-0-0-5-5--5------------------|

Fuente original ATAME [www.atame.org]
Colaborador original: pablo bavarisco [pbavarisco@hotmail.com]

Fuente: tusacordes.com