a b c d e f g h i j k l m n o p q r s t u v w x y z 0-9

Criminal Mambo

Patricio Rey Y Sus Redonditos De Ricota

			
Intro:
Guitarra:
        Riff A                FA                    RIFF A
e|-------------------|--|----------------0-|--|-------------------|--|
B|-------------------|--|----------------0-|--|-------------------|--|
G|-------------------|X4|-------------#--2-|X4|-------------------|X4|
D|-------------------|--|-3-3-3-3-3-3----3-|--|-------------------|--|
A|-------5---4---3-2-|--|-3-3-3-3-3-3----3-|--|-------5---4---3-2-|--|
E|---0-0---0---0-----|--|-1-1-1-1-1-1----1-|--|---0-0---0---0-----|--|
PM. .................                            ...............

BAJO:     
G|-------------------|--|-------------------|--|-------------------|--|
D|-------------------|X4|-------------------|X4|-------------------|X4|
A|-------5---4---3-2-|--|-------------------|--|-------5---4---3-2-|--|
E|---0-0---0---0-----|--|-1-1-1-1-1-1-1-1-1-|--|---0-0---0---0-----|--|


VERSO 1:  SOBRE FAintro

FA
Es un criminal mambo
es un criminal mambo
es un criminal mambo
es un criminal mambo.


PUENTE RIFF A X4


VERSO 2 igual
FA
Es un criminal mambo
es un criminal mambo
es un criminal mambo
es un criminal mambo.


PUENTE RIFF A X4

ESTRIBILLO 1:

FA                      SI
Criminal criminal Mam--bo
Criminal criminal mam--bo
criminal criminal mam--bo
criminal criminal mam--bo

DO                      Fa#
Criminal criminal mam--bo
Criminal criminal mam--bo
criminal criminal mam--bo

DO   Fa#   DO Fa#    y RIFF A
Mam- bo  Mam-bo  Uh..


GUITARRA:
       FA         SI      DO                 fa#      DO FA# DO FA#
e|-------------------|--|------------------------|--|---------------|
B|-------------------|--|------------------------|--|---------------|
G|----------------4--|X4|------------------------|X3|---------------|
D|-3-3-3-3-3-3-3--4--|--|---------------------11-|--|----11-----11--|
A|-3-3-3-3-3-3-3--2--|--|10-10-10-10-10-10-10--9-|--|-10--9--10--9--|
E|-1-1-1-1-1-1-1-----|--|-8--8--8--8--8--8--8----|--|--8------8-----|

BAJO:
G|-------------------|--|------------------------|--|---------------|
D|-------------------|X4|------------------------|X3|---------------|
A|----------------2--|--|----------------------9-|--|----9------9---|
E|-1-1-1-1-1-1-1-----|--|-8--8--8--8--8--8--8----|--|--8------8-----|


SOLO DE SAXO:

BAJO y GUITARRA 1: Riff A
G|-------------------||
D|-------------------||x8
A|-------5---4---3-2-||
E|---0-0---0---0-----||

GUITARRA 2:

e|--3-3---0-3~----|--|
B|--3-3---0-3~----|--|
G|--------------------|X8|
D|--------------------|--|
A|--------------------|--|
E|--------------------|--|


VERSO 3: 

GUITARRA
              Riff B                               
e|-------------------.------------------|--|
B|-------------------.------------------|--|
G|-------------------.------------------|X4|
D|-------------------.------------------|--|
A|-------5---4---3-2-.------5---4-------|--|
E|---0-0---0---0-----.--0-0---0---0-3~--|--|
PM. .................   ............             

BAJO: 
G|-------------------.------------------|--|
D|-------------------.------------------|x4|
A|-------5---4---3-2-.------5---4-------|--|
E|---0-0---0---0-----.--0-0---0---0-3~--|--|





SOLO DE GUITARRA:

BAJO: 
G|-------------------.------------------|--|
D|-------------------.------------------|x8|
A|-------5---4---3-2-.------5---4-------|--|
E|---0-0---0---0-----.--0-0---0---0-3~--|--|


GUITARRA solo   una parte...

e|---------------------------|---------------|--------------|-------|----------------------------
B|-16b-16b~--15--12--------|---------------|--------------|-------|----------------------------
G|--------------------15~~-|-15br-15-13~-|--16----------|-13~-|----------------------------
D|---------------------------|---------------|17--17-15--13-|-13~-|----------12-14-14p13p12-14~
A|---------------------------|---------------|--------------|-------|-----12-14------------------
E|---------------------------|---------------|--------------|-------|12-15-----------------------
                                 ^           PM .........            ...............
e|-------------10~--------|----------------------------------
B|---------11b-------10b~-|----------------------------------
G|-12-9-12------------------|---------------------------------- 
D|--------------------------|--9vvvv-------------------------
A|--------------------------|----------------------------------
E|--------------------------|----------------------------------


ESTRIBILLO Final:

FA                      SI
Criminal criminal Mam--bo
Criminal criminal mam--bo
criminal criminal mam--bo
criminal criminal mam--bo

DO                      Fa#
Criminal criminal mam--bo
Criminal criminal mam--bo
criminal criminal mam--bo

DO   Fa#   DO Fa#   
criminal    criminal
DO   Fa#   DO Fa# 
Criminal....

GUITARRA:
       FA         SI      DO                 fa#      DO FA# DO FA# c/vez mas lento        MI
e|-------------------|--|------------------------|--|--------------|--|--------------------|-0|
B|-------------------|--|------------------------|--|--------------|--|--------------------|-0|
G|----------------4--|X4|------------------------|X3|--------------|x3|--------------------|-1|
D|-3-3-3-3-3-3-3--4--|--|---------------------11-|--|----11-----11-|--|----11--------------|-2|
A|-3-3-3-3-3-3-3--2--|--|10-10-10-10-10-10-10--9-|--|-10--9--10--9-|--|-10--9--101010101010|-2|
E|-1-1-1-1-1-1-1-----|--|-8--8--8--8--8--8--8----|--|--8------8----|--|--8------8-8-8-8-8-8|-0|

BAJO:
G|-------------------|--|------------------------|--|--------------|--|--------------------|----|
D|-------------------|X4|------------------------|X3|--------------|X3|--------------------|----|
A|----------------2--|--|----------------------9-|--|----9------9--|--|-----9--------------|----|
E|-1-1-1-1-1-1-1-----|--|-8--8--8--8--8--8--8----|--|--8------8----|--|--8------8-8-8-8-8-8|-0|


FIN.

Fuente original ATAME [www.atame.org]
Colaborador original: Guille [elguille665@hotmail.com]

Fuente: tusacordes.com