a b c d e f g h i j k l m n o p q r s t u v w x y z 0-9

Capitan Buscapina

Patricio Rey Y Sus Redonditos De Ricota

			
Intro
G|------------------------|x6
D|------------------------|
A|-4---4-----4---4--------|
E|---3---3-6---3---3-6-4--|

Verso
G|------------------------|x2
D|------------------------|
A|-4---4-----4---4--------|
E|---3---3-6---3---3-6-4--|
 
 |------------------------|x2
 |------------------------|
 |-7---7-----7---7--------|
 |---6---6-9---6---6-9-5--|

Puente
G|------------------------|x2
D|------------------------|
A|-4---4-----4---4--------|
E|---3---3-6---3---3-6-4--|

Coro
G|-------------------------|
D|-------------------------|
A|---------5----------1/5--|
E|-1-1-1-1----1-1-1-1------|

Puente
G|------------------------|x2
D|------------------------|
A|-4---4-----4---4--------|
E|---3---3-6---3---3-6-4--|

Verso
G|------------------------|x2
D|------------------------|
A|-4---4-----4---4--------|
E|---3---3-6---3---3-6-4--|
 
 |------------------------|x2
 |------------------------|
 |-7---7-----7---7--------|
 |---6---6-9---6---6-9-5--|

Puente
G|------------------------|x2
D|------------------------|
A|-4---4-----4---4--------|
E|---3---3-6---3---3-6-4--|

Coro
G|-------------------------|
D|-------------------------|
A|---------5----------1/5--|
E|-1-1-1-1----1-1-1-1------|

Puente
G|------------------------|x1
D|------------------------|
A|-4---4-----4---4--------|
E|---3---3-6---3---3-6-4--|

Verso 2
G|---------------------------------------|
D|---------------------------------------|
A|---------------------------------------|
E|-000-0000--222-2222--555-5555-555-5555-|

Puente
G|------------------------|x2
D|------------------------|
A|-4---4-----4---4--------|
E|---3---3-6---3---3-6-4--|

Verso
G|------------------------|x2
D|------------------------|
A|-4---4-----4---4--------|
E|---3---3-6---3---3-6-4--|
 
 |------------------------|x2
 |------------------------|
 |-7---7-----7---7--------|
 |---6---6-9---6---6-9-5--|

Puente
G|------------------------|x2
D|------------------------|
A|-4---4-----4---4--------|
E|---3---3-6---3---3-6-4--|

Coro
G|-------------------------|
D|-------------------------|
A|---------5----------1/5--|
E|-1-1-1-1----1-1-1-1------|

Puente
G|------------------------|x1
D|------------------------|
A|-4---4-----4---4--------|
E|---3---3-6---3---3-6-4--|

Verso 2
G|---------------------------------------|
D|---------------------------------------|
A|---------------------------------------|
E|-000-0000--222-2222--555-5555-555-5555-|

Puente ***HASTA EL FINAL***
G|------------------------|(+ó-12veces)
D|------------------------|
A|-4---4-----4---4--------|
E|---3---3-6---3---3-6-4--|

Escuchá la canción para saber el ritmo

Fuente original ATAME [www.atame.org]
Colaborador original: Sebastián Vidondo [rojoamargodelsiglo@yahoo.com.ar]

Fuente: tusacordes.com