a b c d e f g h i j k l m n o p q r s t u v w x y z 0-9

Cancion Para Naufragios.

Patricio Rey Y Sus Redonditos De Ricota

			
Intro:
GUITARRA 1:
   ______PARTE 1 tocar esto 2 veces_________     _________________PARTE 2____________________
  |                                           |   |       FAm       Sib   *        Sib punteo|
E|8-8-6-6--------|--|------------|---|--444-|| |--1-1--1--1-1--1|-----|444|---|---------------|
B|--------9-9-6-6|--|--------6~|---|--444-|| |--1-1--1--1-1--1|-----|444|---|---------------|
G|---------------|X2|-6-6--8-----|---|--------|| |----------------|-33-3|---|FAm|-33--3---------|
D|---------------|--|------------|-ƒ-|--------|| |----------------|----3|---|---|-----3---------|
A|---------------|--|------------|---|--------|| |----------------|1--1-|---|---|1--1--1-3-4-3-1|
E|---------------|--|------------|---|--------|| |1----1--------1-|-----|---|---|---------------|

GUITARRA2: el FAm es como lo hace guitarra 1 en PARTE 2
  PARTE 1                       *                      PARTE 2         *
E|--------------|-------|--|---444-||          |-------|-------|---444-|----|--------|
B|--------------|-------|--|---444-||          |-------|-------|---444-|----|--------|
G|----fam-------|---SIb-|--|---444-||x2        |--Fam--|--Sib--|---444-|----|--------|
D|--------------|-------|--|---------||          |-------|-------|---------|FAm-|-SIb----| 
A|--------------|-------|--|---------||          |-------|-------|---------|----|--------|
E|--------------|-------|--|---------||          |-------|-------|---------|----|--------|

BAJO: PARTE 1
   FAm                   Sib         *
G|----------------|--|-------|----|------|----------------|--|-------|----|------|
D|----------------|--|---

Fuente original ATAME [www.atame.org]
Colaborador original: Guille [elguille665@hotmail.com]

Fuente: tusacordes.com