a b c d e f g h i j k l m n o p q r s t u v w x y z 0-9

Cancion Para Naufragio

Patricio Rey Y Sus Redonditos De Ricota

			
Intro
G|-----------------------------|x2
D|-----------------------------|
A|-------4-2--------4-2--------|
E|-22-55------2-4-5------2--2--|

 |----------------------------|x2
 |----------------------------|
 |-----------------4-2--------|
 |-22-4-5-2--2-4-5------2-2---|

Verso
G|-----------------------------|x2
D|-----------------------------|
A|-------4-2--------4-2--------|
E|-22-55------2-4-5------2--2--|

 |----------------------------|x2
 |----------------------------|
 |-----------------4-2--------|
 |-22-4-5-2--2-4-5------2-2---|

 |-----------------------------|x2
 |-----------------------------|
 |-------4-2--------4-2--------|
 |-22-55------2-4-5------2--2--|

 |----------------------------|x2
 |----------------------------|
 |-----------------4-2--------|
 |-22-4-5-2--2-4-5------2-2---|

Solo de Saxo y Guitarra
G|---------------------------|x4
D|---------------------------|
A|---------------------------|
E|-1--1---3--3---1--1--1--1--|

 |---------------------------|
 |---------------------------|
 |----------------1-1---1-1--|
 |-1-1--1-3--1--1-----1------|
 
 |----------------------------|
 |----------------------------|
 |-------4-2--------4-2-------|
 |-22-55------2-4-5-------2-2-|

Verso
G|-----------------------------|x2
D|-----------------------------|
A|-------4-2--------4-2--------|
E|-22-55------2-4-5------2--2--|

 |----------------------------|x2
 |----------------------------|
 |-----------------4-2--------|
 |-22-4-5-2--2-4-5------2-2---|

Solo de Saxo y Guitarra
G|---------------------------|x7
D|---------------------------|
A|---------------------------|
E|-1--1---3--3---1--1--1--1--|

 |---------------------------|
 |---------------------------|
 |----------------1-1---1-1--|
 |-1-1--1-3--1--1-----1------|
 
 |----------------------------|
 |----------------------------|
 |-------4-2--------4-2-------|
 |-22-55------2-4-5-------2-2-|

Verso
G|-----------------------------|x2
D|-----------------------------|
A|-------4-2--------4-2--------|
E|-22-55------2-4-5------2--2--|

 |----------------------------|x2
 |----------------------------|
 |-----------------4-2--------|
 |-22-4-5-2--2-4-5------2-2---|

Solo de Saxo y Guitarra
G|---------------------------|x4
D|---------------------------|
A|---------------------------|
E|-1--1---3--3---1--1--1--1--|

Final
G|-----------------|
D|-----------------|
A|-----------------|
E|-1-1---3-3----1--|

Escuchá la canción para saber el ritmo

Fuente original ATAME [www.atame.org]
Colaborador original: Sebastián Vidondo [rojoamargodelsiglo@yahoo.com.ar]

Fuente: tusacordes.com