a b c d e f g h i j k l m n o p q r s t u v w x y z 0-9

Caña Seca Y Un Membrillo

Patricio Rey Y Sus Redonditos De Ricota

D
			
intro:

guitarra.
        Re        do         sol           Re        do         sol
E|----2------|-------3--|-------3-----|----2---|---------3-|--------3----3-----|
B|------3----|----------|-----0---0---|-----3--|-----------|------0-3----3-3---|
G|--------2--|-----0----|---0-------0-|------2-|------0----|----0--------------0-|
D|--0--------|---2------|-------------|-0------|----2------|---------------------|
A|-----------|-3--------|-------------|--------|--3--------|---------------------|
E|-----------|----------|-3-----------|--------|-----------|--3------------------|

BAJO:
G|-----------|----------|-------------|--------|-----------|---------------------|
D|-----------|----------|-------------|--------|-----------|---------------------|
A|-----------|----------|-------------|--------|-----------|---------------0-2-3-|
E|-----------|----------|-------------|--------|-----------|---------------------|


guitarra.
        Re        do         sol           Re        do         sol
E|----2------|-------3--|-------3-----|----2---|---------3-|--------3----3-----|
B|------3----|----------|-----0---0---|-----3--|-----------|------0-3----3-3---|
G|--------2--|-----0----|---0-------0-|------2-|------0----|----0--------------0-|
D|--0--------|---2------|-------------|-0------|----2------|---------------------|
A|-----------|-3--------|-------------|--------|--3--------|---------------------|
E|-----------|----------|-3-----------|--------|-----------|--3------------------|

BAJO:
G|-----------|----------|-------------|--------|-----------|---------------------|
D|-----------|----------|-------------|--------|-----------|---------------------|
A|-5------0|3-------|--------0-2-3|-5---0|-3-------|---------------0-2-3-|
E|-----------|--------0-|3----------|--------|----------0|-3-----------------|



VERSO 1:

notas igual que en intro...

guitarra.
        Re        do         sol           Re        do         sol            Re   do   sol
E|----2------|-------3--|-------3-----|----2---|---------3-|--------3-----|--|--2--|----3|--3333|
B|------3----|----------|-----0---0---|-----3--|-----------|------0---0---|--|---3-|-----|--3333|
G|--------2--|-----0----|---0-------0-|------2-|------0----|----0-------0-|x3|----2|--0--|--0000|
D|--0--------|---2------|-------------|-0------|----2------|--------------|--|0----|-2---|--0000|
A|-----------|-3--------|-------------|--------|--3--------|--------------|--|-----|3----|--2222|
E|-----------|----------|-3-----------|--------|-----------|--3-----------|--|-----|-----|0-3333|

BAJO:
G|-----------|----------|-------------|--------|-----------|--------------|--|-----|-----|------|
D|-----------|----------|-------------|--------|-----------|--------------|x3|-----|-----|------|
A|-5------0|3-------|--------0-2-3|-5---0|-3-------|--------0-2-3-|--|5-0|3--|------|
E|-----------|--------0-|3----------|--------|----------0|-3----------|--|-----|-----|0-3333|


        re        do      sol
        Negrita yace asustada,
         re        do      sol
	la hormiga se le durmió.
        re        do           sol
	"Dios ya no quiere que baile..."
        re        do      sol-sol-sol....
	me dijo y me sofocó.

ESTRIBILLO;


guitarra [re - do- sol- puente] X4              

BAJO:  re    do        sol        puente       re      do      sol
G|-------|---------|-----------|--------|--|-------|---------|-------------||
D|---4---|-----2---|-----------|--------|--|---4---|-----2---|-------------||
A|-5---5-|-3-3---3-|-----2-----|-2-3--5-|x3|-5---5-|-3-3---3-|---------2-3-||
E|-------|---------|-3-3---3--3|--------|--|-------|---------|-3-3-3-3-----||


         Re        do      sol          puente 
	Vamos negrita!  bailá hasta el fin
         Re        do      sol        puente  
	Vamos negrita! , hacelo por mi.
	Re        do      sol           puente
	Vamos negrita!  bailá hasta el fin
         Re        do      sol        puente   
	Vamos negrita! , hacelo por mi.


puente que hace la guitarra

e|-------|
B|-------|
G|-------|
D|-------|
A|-0-2-3-|
E|-------|


VERSO 2 :  igual

      re        do      sol
	La curva no se ha mojado,
      re        do      sol
	ni patino mi animal.
      re        do      sol
	Morena, vi tu camisa mojada,
      re        do      sol
	secando y arrebaté!


ESTRIBILLO 2:
igual

         Re        do      sol          puente 
	Vamos negrita!  bailá hasta el fin
         Re        do      sol        puente  
	Vamos negrita! , hacelo por mi.
	Re        do      sol           puente
	Vamos negrita!  bailá hasta el fin
         Re        do      sol        enganche 
	Vamos negrita! , hacelo por mi.


enganche;  D|--------||
           G|--------||
           A|--------||
           E|-2-3--4-||



SOLO DE SAXO:

BAJO:   La        La                 Sol                      Re  Do   Sol Do   Re  Do   Sol
G|-------------------------------|-----------------------|--|----------------|------------------|
D|-------------4-------------4---|-----------------------|x2|----------------|------------------|
A|---------4-7--0--------4-7---0-|-----------------------|--|5-5--3-3-----3-3|-5-5--3-3---------|
E|--5-5--8--------5-5--8---------|-3-3-3-3-3-3-3-3-2-3-2-|--|----------3-3---|----------3333333-|

            La
G|-------|-------------------------------||
D|-------|-------------4-------------4---||
A|-------|---------4-7--0--------4-7---0-||
E|-2-3-4-|--5-5--8--------5-5--8---------||


guitarra..              _
 LA fraseo   sol       |     Re  Do  Sol Do   Re   Do      Sol                 LA
E|-------|--|-------|--|-|---|----------------|-----------------------|-------------------------|
B|-------|--|-------|--|-|---|----------------|-----------------------|-------------------------|
G|-------|x4|-------|x4|-|X2-|----------------|-----------------------|-------------------------|
D|-------|--|-------|--|-|---|7-7--5-5-----5-5|-7-7--5-5--------------|-------------------------|
A|-7-7-9-|--|-5-5-7-|--|-|---|5-5--3-3-5-5-3-3|-5-5--3-3--5-5-5-5-5-5-|/-7-7-9-7-7-9-7-7-9-7-7-9|
E|-5-5-5-|--|-3-3-3-|--|-|---|---------3-3----|-----------3-3-3-3-3-3-|/-5-5-5-5-5-5-5-5-5-5-5-5|
                        _|



ESTRIBILLO 3;


guitarra [re - do- sol- puente] X4              

BAJO:  re    do        sol        puente       re      do      sol
G|-------|---------|-----------|--------|--|-------|---------|-------------||
D|---4---|-----2---|-----------|--------|--|---4---|-----2---|-------------||
A|-5---5-|-3-3---3-|-----2-----|-2-3--5-|x3|-5---5-|-3-3---3-|---------2-3-||
E|-------|---------|-3-3---3--3|--------|--|-------|---------|-3-3-3-3-----||


         Re        do      sol          puente 
	Vamos negrita!  bailá hasta el fin
         Re        do      sol        puente  
	Vamos negrita! , hacelo por mi.
	Re        do      sol           puente
	Vamos negrita!  bailá hasta el fin
         Re        do      sol        puente   
	Vamos negrita! , hacelo por mi.


VERSO 3: igual
 
	Fuera pechito dañino,
	milagro te hará cambiar,
	un dedalito de caña, soplada
	y este ritmo zumbador.


REPETIR ESTRIBILLO.


VERSO 4 :  D organo.

  re        do     sol
E|---------------------|--|  |-------------------|
B|---------------------|--|  |-------------------|
G|-----

Fuente original ATAME [www.atame.org]
Colaborador original: guille [elguille665@hotmail.com]

Fuente: tusacordes.com