a b c d e f g h i j k l m n o p q r s t u v w x y z 0-9

Caña Seca Y Un Membrillo

Patricio Rey Y Sus Redonditos De Ricota

			
*
 Intro y Versos:
G|----------------------------|
D|----------------------------|
A|-5--5-3--3------------2-3---|
E|-----------3--3-3---5-------|

*
 Coros:
G|-----------------------------------|
D|---4------2------------------------|
A|-5----5-3----3---2-5----2-----2----|
E|---------------3------3---3-5------|

*
 Durante el Solo de Saxo:		Riff Especial del Solo:
G|------------------------------------| G|---------------------|
D|-----4--------2---------------------| D|---------------------|
A|-5-5---5--3-3---3------2---5---2----| A|-5-5-----3-3---------|
E|-------------------3-3---3---3---3--| E|-----------------3-3-|

*
 Riff después de él, vienen Estribillos hasta que termine la canción:
G|-----------------|
D|-----------------|
A|-5---5-3---3-----|
E|-------------3---|

Escuchá la canción para saber el ritmo

Fuente original ATAME [www.atame.org]
Colaborador original: Sebastián Vidondo [rojoamargodelsiglo@yahoo.com.ar]

Fuente: tusacordes.com