a b c d e f g h i j k m n o p q r s t x v w y z 0-9

Caña Seca Y Un Membrillo

Patricio Rey Y Sus Redonditos De Ricota

			
Corrección de Caña seca y un membrillo


Intro-Versos        
|--------------------------------|x5
|--------------------------------|  
|----2---3---5-----5---3---3-----|  
|3-----------------------------3-|  

|--------------------------------||--------------------------------|
|--------------------------------||--------------------------------|
|----2---3---5-----5---3---3-----||--------------------------------|
|3-------------------------------||--3-----3-----3-----3-----3-----|

Estribillo: hace esta base con variaciones al final fíjense cuando va cada una

Base	                            Variación 1        Variación 2
|--------------------------------| |-----------------|---------------|   
|----4-----------2---------------| |-----------------|---------------|
|5-------5---3-------3-----2---5-| |5-----3-----2----|--------2---3--|
|----------------------3---------| |-----------------|3---3----------|

Variación 3        Variación 4
|----------------|--------------------|
|----------------|3/--5---3---2-------|
|---------2------|----------------3---|
|-3---3-------3--|--------------------|

-Verso-
-Estribillo-  

Solo de saxo
|--------------------------------|--------|x2 |-----------------------|
|--------------------------------|--------|   |-----------------------|
|----2-2-3-5----2-2-3-5-5--3-2---|--------|   |5-5---3-3---------2-2--|
|3-3----------3----------------3-|-3x15-|   |------------3-3--------|

|--------------------| |--------------------------------|
|--------------------| |--------------------------------|
|5-5---3-3-----------| |----2-2-3-5----2-2-3-5-5--3-2---|
|------------3333333-| |3-3----------3----------------3-|

-Estribillo-
-Verso-
-Estribillo-

|------------------|x3|----------------------|
|------------------|  |----------------------|
|-5---5---3---3----|  |-5---5---3---3--------|
|----------------3-|  |----------------3x8-|

-Estribillo hasta el final-

Fuente original ATAME [www.atame.org]<br>Colaborador original: Pablo
[pablocarnicero@hotmail.com]<p>Fuente: tusacordes.com</p>