a b c d e f g h i j k l m n o p q r s t u v w x y z 0-9

Buenas Noticias

Patricio Rey Y Sus Redonditos De Ricota

D
C
Bb
			
.transcripcion por pablo lizardo pablo_lizardo@hotmail.com

Intro:
e-------------------------------------
B-------------------------------------
G-----77-------77--|-----55-------55--|
D---77--7----77--7-|---55--5----55--5-| x4
A-55-------55------|-33-------33------|
E-------------------------------------
        D                C

Punteo 1:
e--------------------------------
B--------------------------------
G-3-2-3--2-0---------3----5----7-|
D------------3-2-3---3----5----7-|
A------------------1-1----3----5-|
E--------------------------------
        Bb        Bb C  D

Punteo 2:
e---------------------------------------------]
B---------------------------------------------]
G-7---------7---------------------3----5----7-|
D-7-----4-7---8---7-8-7-5-7-------3----5----7-|
A-5-5-7---------------------5-0-1-1----3----5-|
E---------------------------------------------]
 D      Bb         D   Bb C  D

e-----------------------------------------------]
B-----------------5-6-5---7---------------------]
G-7---------7-----------7---7-------------------|
D-7-----4-7---8---------------7--8-8--10---7----
A-5-5-7----------------------------8--10---7----
E----------------------------------5---8---5----]
 D      Bb    D          Bb C  D

.la segunda guitarra toca los acordes que están entre parentesis

Dcomo en la intro
Esa banda inconsolable de perros sin folleto
Ccomo en la intro
brujas de alma sencilla, patéticos viajantes.
D
Pobres tontos, pobres diablos, lunáticos diamantes 
C
prometidos de carne, lánguidos impalpábles
Bb Punteo 1 D          Punteo 2 Bb-C-D
son...      mis amantes

Fuente original ATAME [www.atame.org]
Colaborador original: Pablo Lizardo [pablo_lizardo@hotmail.com]

Fuente: tusacordes.com