a b c d e f g h i j k l m n o p q r s t u v w x y z 0-9

Blues De La Libertad

Patricio Rey Y Sus Redonditos De Ricota

			
Intro:

guitarra:
    RE7                  DO7              SOL 7         DO7      SOL7 - SOL9    RE7     FA#7  G7 
E|------------------|---------------|--------------|----------|------10------|------------------|
B|-----3------3-----|----1------1---|-------8------|----1-----|------10------|-3-3-3--3/7--7/-8-|
G|----5-5----5-5----|---3-3----3-3--|-----10-10----|---3-3----|---10----10---|-5-5-5--5/9--9/10-|
D|---4---4--4---4---|--2---2--2---2-|/---9------9/-|--2---2-/-|--9---------9/|-4-4-4--4/8--8/-9-|
A|--5-----5-------/-|-3-----3-------|/-10--------/-|-3------/-|10-----------/|-5-5-5--5/9--9/10-|
E|------------------|---------------|--------------|----------|--------------|------------------|

BAJO:                    entra acá=>     SOL          DO         SOL            RE        Fa# SOl
G|------------------|---------------|--------------|----------|--------------|------------------|
D|------------------|---------------|--------------|----------|--------------|------------------|
A|------------------|---------------|-----------1-2|3-------|----------3-4-|55-5--5/--------|
E|------------------|---------------|-3----------|-------5-4|3-----------|-------------2/3--|


VERSO 1:

       SOl9                (DO7-DO9)
Mi amor, la libertad es fiebre, 
     SOL9                   DO7_DO9
es oración, fastidio y buena suerte.


Guitarra :
  mi amor...  Sol9       (DO7-DO9)    SOL9          SOL7          DO7_DO9
E|-----------10--------|-0--3------|--------10----------------|--------3-------||
B|-----------10--x----|-1--3-3/2--|/----10---10----------10|---------3------||
G|-----------10--x----|-3---------|/--10-------10-----10-10|-----3----3-----||
D|------------9--x----|-2---------|/-9---------------9-------|---2------------||
A|---------------------|-3---------|----------------10--------|-3----------3-||
E|---------------------|-------------|--------------------------|----------------||

BAJO:     SOL            DO                SOL                      DO
G|-----------------|---|---------|---|-------------------|------|----------------||
D|-----------------|---|---2-5-2-|---|-------------------|------|---2--5--2------||
A|----------2-5-2--|5-4|-3-------|---|-----2--5--2-------|-5--4-|-3--------------||
E|-------3---------|---|---------|5-4|--3----------------|------|----------------||


ESTRIBILLO 1:

DO9                        puente1
que está invitando a zozobrar.
RE9            puente 2     DO9
Otra vulgaridad social igual, 
siempre igual, todo igual
           RE9
todo lo mismo...


guitarra:
         DO9                  puente1     RE9          puente2    Do9          RE7      fa#  Sol7
E|--------------3-------3---|--------|---5-------5---|---------|---3------3--|----------x-9/10|
B|-----1-----3-3-----3-3--|--------|--5-5-----5-5--|---------|--3-3----3-3-|-3333333--x-9/10|
G|-----3----3---3---3---3-|--------|-5---5---5---5-|---------|-3---3--3---3|-5555555-

Fuente original ATAME [www.atame.org]
Colaborador original: GUILLE [elguille665@hotmail.com]

Fuente: tusacordes.com