a b c d e f g h i j k l m n o p q r s t u v w x y z 0-9

Blues De La Artilleria

Patricio Rey Y Sus Redonditos De Ricota

			
Introducion y verso:

g---------------------------------------------
d---------------------------------------------
a-2--1-2---------------2--1-2-----------------
E--------2-3--2-3--3-2--------2-3--2-3--3-2-0-

g-----------------------------------------
d-----------------------------------------
a-----------2--1-2------------------------
E-0-2-3-2-0---------2-2-2-2-2-2-2-2-2-2-2-

Estribillo:

                                         x2
g----------------------------------------
d--------------4-------------------------
a--2-2-2-2-2-2---2-----------------------
E------------------2-2-2-2-2-2-2-2-2-2-2-

g-----------------------------
d-----------------------------
a---------------------2-------
E-3-3-3--2-2-2--3-3-3-3-2-0---

verso
Estribillo
solo con base de introducion
fin

Fuente original ATAME [www.atame.org]
Colaborador original: Maximiliano Pablo Birarelli [REY DEL PATY]

Fuente: tusacordes.com