a b c d e f g h i j k l m n o p q r s t u v w x y z 0-9

Blues De La Artilleria

Patricio Rey Y Sus Redonditos De Ricota

Em
			
INTRO:
Guitarra
   Sim                                   SOl
E|--------------------------------|----------------------------------|
B|--------------------------------|----------------------------------|
G|--------------------------------|----------------------------------|
D|----4--4-3-4-------4-4-4--5-4-3-|----------------------------------|
A|--2-------------2---------------|-5---5--5-4-5-------5--5-4-5------|
E|--------------2-----------------|---3------------2-3-----------3-2-|

BAJO:     SI                           SOL
G|--------------------------------|----------------------------------|
D|--------------------------------|----------------------------------|
A|--2-------------2---------------|----------------------------------|
E|--------------2-----------------|-2-3------------2-3-----------3-2-|

sigue...

Guitarra
   Sim                                   SOl                              MIm
E|--------------------------------|-------------------------------------|----------|
B|--------------------------------|-------------------------------------|----------|
G|--------------------------------|-------------------------------------|----------|
D|----4--4-3-4-------4-4-4--5-4-3-|-------------------------------------|-2--2--2--|
A|--2-------------2---------------|-5---5--5-4-5-------5--5-4-5------2|-2--2--2--|
E|--------------2-----------------|---3------------2-3-----------3-2-0|-0--0--0--|

BAJO:     SI                           SOL
G|--------------------------------|-------------------------------------|----------|
D|--------------------------------|-------------------------------------|----------|
A|--2-------------2---------------|-------------------------------------|----------|
E|--------------2-----------------|-2-3------------2-3-----------3-2-(0-|--------)-|

Guitarra:  
     Em                 Sim                              FA#5       FA#5*  MI5*  RE5  DO#5 
E|-----------|---------------------------------|---------------------|------|-----|-----|----|
B|-----------|---------------------------------|---------------------|------|-----|-----|----|
G|-----------|---------------------------------|---------------------|------|-----|-----|----|
D|-----------|----4--4-3-4-------4-4-4--5-4-3--|--4-4--4-4--4-4--4-4-|-11-11|-9-9-|-7-7-|-6-6|
A|-----------|--2-------------2---------------5|--4-4--4-4--4-4--4-4-|-9--9-|-7-7-|-5-5-|-4-4|
E|-0-2-3-2-0-|--------------2------------------|--2-2--2-2--2-2--2-2-|------|-----|-----|----|

BAJO:                 SI                              FA#5             FA# *  MI *  RE   DO#  
G|-----------|---------------------------------|---------------------|------|-----|-----|----|
D|-----------|---------------------------------|---------------------|------|-----|-----|----|
A|-----------|--2-------------2---------------5|---------------------|-9--9-|-7-7-|-5-5-|-4-4|
E|-0-2-3-2-0-|--------------2------------------|--2-2--2-2--2-2--2-2-|------|-----|-----|----|


1er VERSO:   Igual que la intro


SIm                   SOL
  Sos el as del Club París
SIm                  SOL
  as, lo tuyo no es el Rock
MIm                      SIm
  cierran los bares por donde vas,
FA#5                  FA#5*  MI5*  RE5  DO#5 
  tu breto y tus ojos grises. 


VERSO 2: Igual que la intro

SIm                   SOL
yo no soy de aconsejar
SIm                   SOL
pero estás jodiendo al personal
MIm                      SIm
debiste poner en Rio ese restorán
FA#5                  FA#5*  MI5*  RE5  DO#5 
que te quitó el sueño, el sueño.


ESTRIBILLO:
                               FA      SOL#    SI      RE
  Guitarra :   RIFF
E|-------------------------|--------|--4b-|---7b-|---10b|-------------------------|
B|-------------------------|--------|-4-----|-7------|10------|-------------------------|
G|-------------------------|--------|-------|--------|--------|-------------------------|X2
D|--9--7-7-----------------|--------|-------|--------|--------|-------------------------|
A|--9--5-5----------5------|-3-3--3-|-------|--------|--------|-------------------------|
E|--7-------7---5-7---7~-|-1-1--1-|-------|--------|--------|-------------------------|
                            PM.....
BAJO:                          FA      SOL#    SI      RE       FA    SOL#    SI    RE
G|-------------------------|--------|-------|--------|--------|-------------4-4-----7-|
D|-------------------------|--------|-------|--------|--------|3-3----6-6---------------|X2
A|-----5-5----------5------|--------|-------|-2--2---|-5--5---|-------------------------|
E|--7-------7---5-7---7~-|---1--1-|-4--4--|--------|--------|-------------------------|

sigue asi...

guitarra:
    SOl5               FA#5             SOL5              FA#5*  MI5*  RE5  DO#5 
E|-----------------|-----------------|-----------------|-----------------------------|
B|-----------------|-----------------|-----------------|-----------------------------|
G|-----------------|-----------------|-----------------|-----------------------------|
D|-----------------|-----------------|-----------------|--11-----9------7-----6------|
A|-5-5-5-5-5-5-5-5-|-4-4-4-4-4-4-4-4-|-5-5-5-5-5-5-5-5-|--9------7------5-----4------|
E|-3-3-3-3-3-3-3-3-|-2-2-2-2-2-2-2-2-|-3-3-3-3-3-3-3-3-|-----------------------------|

BAJO: SOL               FA#             SOL                FA# *  MI *  RE   DO#  
G|-----------------|-----------------|-----------------|-----------------------------|
D|-----------------|-----------------|-----------------|-----------------------------|
A|-----------------|-----------------|-----------------|--9------7------5-----4------|
E|-3-3-3-3-3-3-3-3-|-2-2-2-2-2-2-2-2-|-3-3-3-3-3-3-3-3-|-----------------------------|

letra:
------
RIFF    FA  SOL#            SI           RE       FA    SOL#    SI    RE
               Pero cabe todo lo tuyo en una maldita valija
RIFF    FA  Sol#        SI           RE       FA    SOL#    SI    RE
               de líder dealer sin freno.

SOL5- FA#5 -SOL5-  FA#5*  MI5*  RE5  DO#5 .



3er VERSO:  Igual a los demas


Sos el as del Club París
sos la joya del lugar
el acento del barrio te sale mal,
y te quita el sueño, el sueño.


PUENTE:

Guitarra:
       SOL              FA#                SOL            FA#5       FA#5*  MI5*  RE5  DO#5 
E|-3-3-3-3-3-3--3-3---2-2-2-2-2-2-2-2|--|-3-3-3-3-3-3-|-------------|------------------------|
B|-3-3-3-3-3-3--3-3---3-3-3-3-3-3-3-3|--|-3-3-3-3-3-3-|-------------|------------------------|
G|-----------------------------------|X3|-------------|-------------|------------------------|
D|-----------------------------------|--|-------------|-------------|-11-11--9-9----7-7---6-6|
A|-----------------------------------|--|-------------|-4-4-4-4-4-4-|-9--9---7-7----5-5---4-4|
E|-----------------------------------|--|-------------|-2-2-2-2-2-2-|------------------------|

BAJO:  SOL              FA#                SOL            FA#         FA#*   MI*   RE  DO# 
G|-----------------------------------|--|-------------|-------------|------------------------|
D|-----------5---4-------------------|--|------5------|-------------|------------------------|
A|-------2-----------5---------------|X3|---2---------|-------------|-9--9---7-7----5-5---4-4|
E|---3-------------------5---4-------|--|-3-----------|-2-2-2-2-2-2-|------------------------|

Letra:
------
SOL FA#                          SOL    FA#
       vas como un ciego en la bodega
SOL            FA#              SOL
  cual es tu charter, cual es, eh
FA#                       FA#5*  MI5*  RE5  DO#5 
   sos un aristócrata de cotillón


SOLO DE SAXO:
Mismas notas del estribillo

 Guitarra :   RIFF
E|-------------------------|--------|--4b-|---7b-|---10b|-------------------------|
B|-------------------------|--------|-4-----|-7------|10------|-------------------------|
G|-------------------------|--------|-------|--------|--------|-------------------------|X2
D|--9--7-7-----------------|--------|-------|--------|--------|-------------------------|
A|--9--5-5----------5------|-3-3--3-|-------|--------|--------|-------------------------|
E|--7-------7---5-7---7~-|-1-1--1-|-------|--------|--------|-------------------------|
                            PM.....
BAJO:                          FA      SOL#    SI      RE       FA    SOL#    SI    RE
G|-------------------------|--------|-------|--------|--------|-------------4-4-----7-|
D|-------------------------|--------|-------|--------|--------|3-3----6-6---------------|X2
A|-----5-5----------5------|--------|-------|-2--2---|-5--5---|-------------------------|
E|--7-------7---5-7---7~-|---1--1-|-4--4--|--------|--------|-------------------------|

sigue asi...

guitarra:
    SOl5               FA#5             SOL5              FA#5*  MI5*  RE5  DO#5 
E|-----------------|-----------------|-----------------|-----------------------------|
B|-----------------|-----------------|-----------------|-----------------------------|
G|-----------------|-----------------|-----------------|-----------------------------|
D|-----------------|-----------------|-----------------|--11-----9------7-----6------|
A|-5-5-5-5-5-5-5-5-|-4-4-4-4-4-4-4-4-|-5-5-5-5-5-5-5-5-|--9------7------5-----4------|
E|-3-3-3-3-3-3-3-3-|-2-2-2-2-2-2-2-2-|-3-3-3-3-3-3-3-3-|-----------------------------|

BAJO: SOL               FA#             SOL                FA# *  MI *  RE   DO#  
G|-----------------|-----------------|-----------------|-----------------------------|
D|-----------------|-----------------|-----------------|-----------------------------|
A|-----------------|-----------------|-----------------|--9------7------5-----4------|
E|-3-3-3-3-3-3-3-3-|-2-2-2-2-2-2-2-2-|-3-3-3-3-3-3-3-3-|-----------------------------|

fin del solo de saxo...


REPITE EL 1er verso:

Sos el as del Club París
as, lo tuyo no es el Rock
cierran los bares por dónde vas,
y te quita el sueño, el sueño.


ESTRIBILLO FINAL ;  es casi igual, nada mas se alarga el final...

esta parte:

guitarra:
    SOl5           FA#5             SOL5         FA#5      SOL5        FA#5    sol
E|-------------|-------------|-------------|------------|------------|------|------3-|
B|-------------|-------------|-------------|------------|------------|------|-----3--|
G|-------------|-------------|-------------|------------|------------|------|----4---|
D|-------------|-------------|-------------|------------|------------|--4-|---5----|
A|-5-5-5-5-5-5-|-4-4-4-4-4-4-|-5-5-5-5-5-5-|-4-4-4-4-4-4|-5-5-5-5-5-5|--4-|--5-----|
E|-3-3-3-3-3-3-|-2-2-2-2-2-2-|-3-3-3-3-3-3-|-2-2-2-2-2-2|-3-3-3-3-3-3|--2-|-3------|

BAJO:  SOL          FA#          SOL          FA#          SOL         FA#
G|-------------|-------------|-------------|------------|------------|------|--------|
D|-------------|-------------|-------------|------------|------------|------|--------|
A|-------------|-------------|-------------|------------|------------|------|--------|
E|-3-3-3-3-3-3-|-2-2-2-2-2-2-|-3-3-3-3-3-3-|-2-2-2-2-2-2|-3-3-3-3-3-3|--2-|--------|


Pero cabe todo lo tuyo en una maldita valija
de líder dealer sin freno.

SOL FA#
      si tu moneda hablara,
SOL FA#
      si esa moneda hablara, 
SOL FA#             sol5
      más de la cuenta.


fin

Fuente original ATAME [www.atame.org]
Colaborador original: GUILLE [elguille665@hotmail.com]

Fuente: tusacordes.com