a b c d e f g h i j k l m n o p q r s t u v w x y z 0-9

Blues De La Artilleria

Patricio Rey Y Sus Redonditos De Ricota

			
INTRO Y ESTROFAS:

  Bm                           G                       x2 Em
e------------------------------------------------------||------------------
B------------------------------------------------------||------------------
G------------------------------------------------------||------------------
D----4-4-3-4-----4-4-4-5-4-3---------------------------||------------------
A--2-----------2-------------5---5-5-4-5-----5-5-------||------------------
E------------2-----------------3---------2h3-----3-2---||-0-----0-2-3-2-0--


  Bm
-----------------------------|
-----------------------------|
-----------------------------|
----4-4-3-4-----4-4-4-5-4-3--|
--2-----------2--------------| 
------------2----------------| F#       F#-Em-D-C# 


Bm                    G
  Sos el as del Club París
Bm                    G
  as, lo tuyo no es el Rock
Em                       Bm
  cierran los bares por donde vas,
F#               F#-E-D-C#
  tu vreto y tus ojos grises. 


yo no soy de aconsejar
pero estás jodiendo al personal
debiste poner en Rio ese restorán
que te quitó el sueño, el sueño.


Bm  G     
     Pero cabe todo lo tuyo en una maldita valija
Bm  G       
     de líder dealer sin freno.

G F# G F#-Em-D-C#


Sos el as del Club París
sos la joya del lugar
el acento del barrio te sale mal,
y te quita el sueño, el sueño.

G F#                          G    F#
    vas como un ciego en la bodega
G              F#              G
  cual es tu charter, cual es, eh
F#                       F#-Em-D-C#
  sos un aristócrata de cotillón


SAXO: [Bm  G ]x2  G F# G F#-Em-D-C#


Sos el as del Club París
as, lo tuyo no es el Rock
cierran los bares por dónde vas,
y te quita el sueño, el sueño.


Pero cabe todo lo tuyo en una maldita valija
de líder dealer sin freno.

G F#
    si tu moneda hablara,
G F#
    si esa moneda hablara, 
G F#
    más de la cuenta.

Fuente original ATAME [www.atame.org]
Colaborador original: Victor Amarillo [dosmasdostres@fullzero.com.ar]

Fuente: tusacordes.com