a b c d e f g h i j k l m n o p q r s t u v w x y z 0-9

Blues De La Artilleria

Patricio Rey Y Sus Redonditos De Ricota

Bm
Em
A7
G
D
			
 Bm                                         sol/7              
Intro: D----4 4----4 4?4 245420-----------------------------------------------
       A---2-------2-----2-----------------------------55---55---5---5-5-4----
       E-----------------------------------------------3----3-----3-----3-3 2-
         
                Em          Bm                               Fa#7
       D-----------------44--44?4-245420----------------------------
       A---------------2----2---2-----------------------------------
       E----02323---------------------------------------------------

       [repite dos veces]

Se puede tocar con la intro el tema.

Bm                         Sol7  Fa#7
Sos el as del club paris
Bm                         Sol7 Fa#7
As lo tuyo no es el rock
Em                                         Bm
Cierran los bares por donde van
Fa#7
Tu breto y tus ojos grises

Yo no soy de aconsejar
Pero estas jodiendo al personal
Debistes poner en Rio ese restorant
Que te quito el sueño el sueño


SI5-Re5-fa#7/sol7 A7
           Pero no cabe todo lo tuyo en una maldita balija
SI5-Re5-fa#7/sol7 A7
           De  Lider  diler sin freno

Sol7-Fa#7 [ 2 veces]

Sos el as del club paris
Sos la joya del lugar
El acento del barrio te sale mal
Y te quita el sueño el sueño

G ?D                                         G                       D 
        Vas como un ciego en la bodega y tock tock tock tock tock
         G            D                     G 
        Cual es tu charter cual es hey
        Fa#7
        Sos un aristócrata de cotillon

SI5-Re5 ?fa#7 / Sol7 / A7 [ 2 veces]
Sol7-Fa#7 [2 veces]

Sos el as del club paris
As lo tuyo no es el rock
Cierran los bares por donde vas
Y te quita el sueño el sueño 


Pero no cabe ...................
De lider...................

Sol7-Fa#7
         Si tu moneda hablara
Sol7-Fa#7                          Sol7 
          Si esa moneda hablara
        Fa#7                  Sol7
           Mas de la cuenta


Si5                                      Re5 
--------------                      ----------------
-------------                       ----------------
---------4----                     ----------------
---------4----                     ------------7---
---2----------                     ------------7---
--------------                      ----5-----------
                        
____________________________________________________________________
*suena muy parecido , tienen que escuchar el tema asi se dan cuenta 
cuando viene cada corte.
  Un saludo a todos .
? AGUANTEN LOS REDONDOS ?.

[BS AS-ARG] 

Fuente original ATAME [www.atame.org]
Colaborador original: daniel omar vivio [dani_indio@hotmail.com]

Fuente: tusacordes.com