a b c d e f g h i j k l m n o p q r s t u v w x y z 0-9

Barba Azul Vs. El Amor Letal

Patricio Rey Y Sus Redonditos De Ricota

			
Intro:
GUITARRA:
     SIm                FAm               LA *                 MI*
e|--10|-10-------|---(9-)-|-9-----|--|--12-|-12-----|----7-|-7-----7-----|-----|-----|
B|-12-|----12----|--10--|--10---|--|-13--|---13---|--8---|---8-----8---|-----|-----|
G|11--|-------11-|-11---|----11-|X2|14---|-----14-|9-----|-----9-----9-|-LA*-|-MI*-|
D|------|----------|--------|-------|--|-------|--------|--------|-------------|-----|-----|
A|------|----------|--------|-------|--|-------|--------|--------|-------------|-----|-----|
E|------|----------|--------|-------|--|-------|--------|--------|-------------|-----|-----|
        _____X2_______   _____X2_______        _____X2_____   _____X2_____
BAJO:  |  Sim         | |  FAm         |      |   LA       | |     MI     |   
G|---|-----------------|-----------------|--|---------------|--------------|--|
D|-ƒ-|---------4-4-0-4-|-----------------|X2|-------2-2---2-|--------------|X2|
A|---|-2--5--2---------|---------4-4-0-4-|--|-0-3-0-----3---|-------2-2--2-|--|
E|---|-----------------|-2--5--2---------|--|---------------|-0-3-0-----3--|--|

sigue asi...
GUITARRA:
     SOL                               Si                                  SIm           FA#
e|-10------10-------10------10------|-13------13-------13------13------|--10-|-10---10-|----9-|
B|---11--11--11---11--11--11--11--11|---14--14--14---14--14--14--14--14|-12--|-12-

Fuente original ATAME [www.atame.org]
Colaborador original: Guille [elguille665@hotmail.com]

Fuente: tusacordes.com