a b c d e f g h i j k l m n o p q r s t u v w x y z 0-9

Barba Azul Vs. El Amor Letal

Patricio Rey Y Sus Redonditos De Ricota

			
Intro
G|-----------------------------------|-----------------------------------|
D|---1---4---1---4-------------------|--------------------6---9---6---9--|
A|-22-222-222-222-2---1---4---1---4--|---4---7---4---7--77-777-777-777-7-|
E|------------------22-222-222-222-2-|-55-555-555-555-5------------------|
 |   Este  Riff  va  CUATRO  Veces   |

Pre-Verso
G|-----------------------------------|
D|---1---4---1---4-------------------|
A|-22-222-222-222-2---1---4---1---4--|
E|------------------22-222-222-222-2-|

Verso
G|-----------------------------------|----------------------------------------------------------------|
D|---1---4---1---4-------------------|---------------------------------66--66-77----------------------|
A|-22-222-222-222-2---1---4---1---4--|------------44--44-55-77-67--7--7--77-----------------44--44-55-|
E|------------------22-222-222-222-2-|-55-45--5--5--55---------------------------55-45--5--5--55------|
 |   Este  Riff  va   DOS  Veces     |

Coro
G|---------------|-----------------------------------|
D|---------------|---1---4---1---4-------------------|
A|-------------2-|-22-222-222-222-2---1---4---1---4--|
E|-2222222222-2--|------------------22-222-222-222-2-|

Verso
G|-----------------------------------|----------------------------------------------------------------|
D|---1---4---1---4-------------------|---------------------------------66--66-77----------------------|
A|-22-222-222-222-2---1---4---1---4--|------------44--44-55-77-67--7--7--77-----------------44--44-55-|
E|------------------22-222-222-222-2-|-55-45--5--5--55---------------------------55-45--5--5--55------|
 |   Este  Riff  va   DOS  Veces     |

Coro
G|---------------|-----------------------------------|
D|---------------|---1---4---1---4-------------------|
A|-------------2-|-22-222-222-222-2---1---4---1---4--|
E|-2222222222-2--|------------------22-222-222-222-2-|

Solo de Guitarra
G|-----------------------------------|----------------|
D|---1---4---1---4-------------------|----------------|
A|-22-222-222-222-2---1---4---1---4--|--------------2-|
E|------------------22-222-222-222-2-|-22222222222-2--|
 |  Este   Riff   va   DOS   Veces   |

Verso
G|-----------------------------------|----------------------------------------------------------------|
D|---1---4---1---4-------------------|---------------------------------66--66-77----------------------|
A|-22-222-222-222-2---1---4---1---4--|------------44--44-55-77-67--7--7--77-----------------44--44-55-|
E|------------------22-222-222-222-2-|-55-45--5--5--55---------------------------55-45--5--5--55------|
 |   Este  Riff  va   DOS  Veces     |

Coro
G|---------------|-----------------------------------|
D|---------------|---1---4---1---4-------------------|
A|-------------2-|-22-222-222-222-2---1---4---1---4--|
E|-2222222222-2--|------------------22-222-222-222-2-|

Verso
G|-----------------------------------|----------------------------------------------------------------|
D|---1---4---1---4-------------------|---------------------------------66--66-77----------------------|
A|-22-222-222-222-2---1---4---1---4--|------------44--44-55-77-67--7--7--77-----------------44--44-55-|
E|------------------22-222-222-222-2-|-55-45--5--5--55---------------------------55-45--5--5--55------|
 |   Este  Riff  va   DOS  Veces     |

Coro
G|---------------|-----------------------------------|
D|---------------|---1---4---1---4-------------------|
A|-------------2-|-22-222-222-222-2---1---4---1---4--|
E|-2222222222-2--|------------------22-222-222-222-2-|

Final
G|-----------------------------------|----------------------------------------------------------------|
D|---1---4---1---4-------------------|---------------------------------66--66-77----------------------|
A|-22-222-222-222-2---1---4---1---4--|------------44--44-55-77-67--7--7--77-----------------44--44-55-|
E|------------------22-222-222-222-2-|-55-45--5--5--55---------------------------55-45--5--5--55------|
 |   Este  Riff  va   DOS  Veces     |

 |------------------|
 |------------------|
 |--------------2-|
 |-22222222222-2----|

Escuchá la canción para saber el ritmo

Fuente original ATAME [www.atame.org]
Colaborador original: Sebastián Vidondo [rojoamargodelsiglo@yahoo.com.ar]

Fuente: tusacordes.com