a b c d e f g h i j k l m n o p q r s t u v w x y z 0-9

Aquella Solitaria Vaca Cubana

Patricio Rey Y Sus Redonditos De Ricota

			
Intro
|--------------8-------------------|x4
|--9-7-7-6-7-9-----9-7-7-6-7-------|
|----------------------------5-6-7-|
|7---------------7-----------------|

Verso
|----------------------------------------------------------------|
|----------------------------------------------------------------|
|--------6---9-8-7-----6---9-8-7-----6---9-8-7---4---5---6-------|
|7---9-7---7-------9-7---7-------9-7---7-------------------------|

Puente
|--------------8-------------------|x2
|--9-7-7-6-7-9-----9-7-7-6-7-------|
|----------------------------5-6-7-|
|7---------------7-----------------|

-Verso-
-Puente-

Estribillo
|----------------------------------------------------------------|
|--------3---1-----------3---1---3---1---------------------------|
|------3-------3-------3-------3---------3---1-------------------|
|1---4-----------1---4---------------------------1---------------|

-Puente-
-Verso-
-Puente-
-Verso-
-Puente-
-Estribillo-
-Puente-

Solo de saxo
|-------------------------------------------------------------------|
|-------------------------------------------------------------------|
|-------6-6-7----6-------------6-6-7----6------------6-6-7--4--5--6-|
|7--7-7--------7---7---7---7-7--------7---7---7--7-7----------------|

|--------------8-------------------|x2
|--9-7-7-6-7-9-----9-7-7-6-7-------|
|----------------------------5-6-7-|
|7---------------7-----------------|

|----------------------------------------------------------------|
|----------------------------------------------------------------|
|--------6---9-8-7-----6---9-8-7-----6---9-8-7---4---5---6-------|
|7---9-7---7-------9-7---7-------9-7---7-------------------------|

|--------------8-------------------|x2
|--9-7-7-6-7-9-----9-7-7-6-7-------|
|----------------------------5-6-7-|
|7---------------7-----------------|

|----------------------------------------------------------------|
|--------3---1-----------3---1---3---1---------------------------|
|------3-------3-------3-------3---------3---1-------------------|
|1---4-----------1---4---------------------------1---------------|

|--------------8-------------------|x2
|--9-7-7-6-7-9-----9-7-7-6-7-------|
|----------------------------5-6-7-|
|7---------------7-----------------|

-Verso-
-Puente-
-Verso-
-Puente-
-Estribillo-

Fuente original ATAME [www.atame.org]
Colaborador original: Pablo [pablocarnicero@hotmail.com]

Fuente: tusacordes.com