a b c d e f g h i j k l m n o p q r s t u v w x y z 0-9

Aquella Solitaria Vaca Cubana

Patricio Rey Y Sus Redonditos De Ricota

			
*
 Intro/Riff
G|-----------8-|-----------------|
D|---9-7-6-7---|---9-7-6-7-------|
A|-------------|-----------5-6-7-|
E|-7-----------|-7---------------|

*
 Verso
G|-------------------------|-----------------------|
D|----------6---7--8h9p10--|----------6------------|
A|-7--7-9-7---7------------|-7--7-9-7---7-9-7------|
E|-------------------------|------------------9-7--|

*
 Estribillo
G|--------------------------------------------|
D|--------------------------------------------|
A|--------0-1-3--0-1-3-1-------------0-1-3/x--|
E|-1--1-3----------------3-1--1--1-3----------|

Escuchá la canción para saber los ritmos

Fuente original ATAME [www.atame.org]
Colaborador original: Sebastián Vidondo [rojoamargodelsiglo@yahoo.com.ar]

Fuente: tusacordes.com