a b c d e f g h i j k l m n o p q r s t u v w x y z 0-9

Alien Duce

Patricio Rey Y Sus Redonditos De Ricota

			
Intro: D5 Riff x4

 D5         G5           riff 1
 Alien duce adorno tu esclavitud
 D5           G5             riff 1
 y en un edificio en llamas te encarno. 

 C5              D5      Riff 2
 Nadando en ese minestrón, 
 C5               Riff 3              
 va porco rex a porno rock.

 Si su look bola de efecto te palmo
 y recoges tu hígado desde un rincón.

 Flotando en ese minestrón
 va porco rex a porno rock.

  E5       G5   Bb5          Riff 4
 Va escribiendo su evangelio
  E5     G5       Bb5        Riff 4
 en los ticket de carrefour 
  E5        G5    Bb5        Riff 4   
 y es el pequeño gran matón
    E5      G5    Bb5
 de la internet.

A5 B5 o Riff 5 
Riff 1

Alien Duce  dice desde la TV 
que no quiere estar jamás en la TV.
Lo sobrevuela un gavilán 
que se hace pasar por el.

Va escribiendo su evangelio
en los tickets de carrefour.
Es el pequeño gran matón
de la internet.

E5 G5 Bb5        
         El Alien Duce
E5 G5 Bb5
         chupa y escupe al fin.
E5 G5 Bb5
         Para Alien Duce
E5     G5   Bb5   
Dios es digital.

 E5 G5 Bb5  x4 

Final: E5



Riff 1:

------------|---------------
------------|---------------
------------|---------------
-------5-4--|---------------
--0-3-------|---------------
------------|---------------

Riff 2:

--8-8-8----|--------------
--8-8-8----|--------------
--8-8-8----|--------------
-----------|--------------
-----------|--------------
-----------|--------------

Riff 3:

-----------|--------------
-----------|--------------
--------6~-|--------------
--6p5p4----|--------------
-----------|--------------
-----------|--------------

Riff 4:
--10-10-10--|--------------
--10-10-10--|--------------
------------|--------------
------------|--------------
------------|--------------
------------|--------------

Riff 5:
---------------------------|
---------------------------|
--6p4-6p4-------8-6-8-10~~-|
----------6~/8-------------|
---------------------------|
---------------------------|

 D5  G5  C5 Bb5  A5  B5  E5
-x-|-x-|-x-|-x-|-x-|-x-|-x-|
-x-|-x-|-x-|-x-|-x-|-x-|-x-|
-7-|-x-|-5-|-3-|-2-|-4-|-x-|
-7-|-5-|-5-|-3-|-2-|-4-|-2-|
-5-|-5-|-3-|-1-|-0-|-2-|-2-|
-x-|-3-|-x-|-x-|-x-|-x-|-0-|

Fuente original ATAME [www.atame.org]
Colaborador original: Curda [santi_elquemero hotmail.com]

Fuente: tusacordes.com