a b c d e f g h i j k l m n o p q r s t u v w x y z 0-9

Ñan Fi Frufi Fali Fru

Patricio Rey Y Sus Redonditos De Ricota

			
INTRO:
Guitarra:   MI Riff              SI*
e|---|-------------------|--|------------------|
B|---|-------------------|--|------------------|
G|---|-------------------|x3|-4-4--4-4--4-4-4--|
D|---|-------------------|--|-4-4--4-4--4-4-4--|
A|---|----------2-2-4-2--|--|-2-2--2-2--2-2-2--|
E|12/|--0-0-3-4----------|--|------------------|

BAJO:
G|---|-------------------|--|------------------|
D|---|-------------------|X3|------------------|
A|---|----------2-2-4-2--|--|-2----2------2-2--|
E|12/|--0-0-3-4----------|--|------------------|


VERSO 1: TODO CON RIFF

MIRIff
Voy a cuidar de mi amorcito

que esta borracha por demás,
     LARiff            MIRiff
otra vez me llama nene doctor,
           SI Riff
yo no la cambio por nada
LARiff              MIRiff   SI*
cuando empieza a cabalgar


GUITARRA:    Riff MI        RIff LA              Riff MI              RIff SI
e|-----------------|--|-----------------|--|-----------------|--|----------------|-----|----|---|
B|-----------------|--|-----------------|--|-----------------|--|----------------|-----|----|---|
G|-----------------|x4|-----------------|X2|-----------------|X2|----------------|Riff-|RIff|---|
D|-----------------|--|---------2-2-4-2-|--|-----------------|--|--------4-4-6-4-|-LA--|-MI-|SI*|
A|---------2-2-4-2-|--|-0-0-3-4---------|--|---------2-2-4-2-|--|----5-6---------|-----|----|---|
E|-0-0-3-4---------|--|-----------------|--|-0-0-3-4---------|--|-7-7------------|-----|----|---|

BAJO:
G|-----------------|--|-----------------|--|-----------------|--|----------------|Riff-|RIff|---|
D|-----------------|X4|---------2-2-4-2-|X2|-----------------|X2|--------4-4-6-4-|-LA--|-MI-|SI*|
A|---------2-2-4-2-|--|-0-0-3-4---------|--|---------2-2-4-2-|--|----5-6---------|-----|----|---|
E|-0-0-3-4---------|--|-----------------|--|-0-0-3-4---------|--|-7-7------------|-----|----|---|

SAXO:     LA                                        SI             LA
e|----|------------------|----------------|------|--------------|-----------------|
B|----|------------------|10-8-7---7------|------|--------------|-----------------|
G|-#--|------------------|-------9---6----|--#---|-----------4--|------------2----|
D|----|------------------|-------------7|------|--------------|-----------------|
A|----|-0-0-2-3-4--4-3-2-|----------------|------|-----4-5-6----|-0-0--2-3-4------|
E|----|------------------|----------------|------|-7-7----------|-----------------|


VERSO 2: todo igual

MIRiff
Voy a cuidar de mi amorcito

que mordió el vidrio por demás,
      LARiff           MIriff
otra vez me llama nene sifón
           SIriff
cuando me muerde alocada
LAriff           MIriff  SI*
ñan fi frufi fali fru


ESTRIBILLO 1:


GUITARRA:
    ____________________X2______________
   |        RIff LA          Riff MI    |       RIff SI
e||-----------------|--|-----------------|--|----------------|-----|----|---|---|
B||-----------------|--|-----------------|--|----------------|-----|----|---|---|
G||-----------------|X2|-----------------|X2|----------------|Riff-|RIff|---|---|
D||---------2-2-4-2-|--|-----------------|--|--------4-4-6-4-|-LA--|-MI-|SI*|---|
A||-0-0-3-4---------|--|---------2-2-4-2-|--|----5-6---------|-----|----|---|-2-|
E||-----------------|--|-0-0-3-4---------|--|-7-7------------|-----|----|---|-0-|

BAJO:
   ____________________X2______________
   |        RIff LA          Riff MI    |       RIff SI                    Si*
G||-----------------|X2|-----------------|X2|----------------|Riff-|RIff|-----------|---|
D||---------2-2-4-2-|--|-----------------|--|--------4-4-6-4-|-LA--|-MI-|-----------|---|
A||-0-0-3-4---------|--|---------2-2-4-2-|--|----5-6---------|-----|----|2-2-2-2-222|---|
E||-----------------|--|-0-0-3-4---------|--|-7-7------------|-----|----|-----------|-0-|


     LARiff                 MIRIff
Ñan fi frufi fali frufi ñan fri fru
      LARiff                   MIRiff
Ñan fi frufi fali frufi ñan fri fru
            SIriff      LARiff           MIRIff    Si*
Yo no la cambio por nada cuando empieza a cabalgar.


SOLO DE GUITARRA:
BAJO:    MI                                                                       SI
G|----|-----|-----|----|-------------|------|--|------|--|-----|------|------|------------||
D|----|-#---|-----|-#--|-------------|-Riff-|x2|-Riff-|x2|Riff-|-Riff-|-Riff-|------------||
A|----|-----|-----|----|-------------|--LA--|--|-MI---|--|-Si--|--LA--|--Mi--|2-2-2-2-222-||
E|--0-|-----|--0--|----|-0-1-2-33-44-|------|--|------|--|-----|------|------|------------||


GUITARRA Solo:   MI                                     LA
e|----------------------|---|---------------------|----|-5-5-5-5-5-5--5---5-5---5-5~-|---
B|----------------------|---|---------------------|----|-5-5-5-5-5-5--5-7---5-7-5------|---
G|-6-7~--7-7-6-7-9~-|-#-|-6-7~--7-7-6-7-9~|-#--|---------------------------------|---
D|----------------------|---|---------------------|----|---------------------------------|---
A|----------------------|---|---------------------|----|---------------------------------|---
E|----------------------|---|---------------------|----|---------------------------------|---
                                  SI            LA              MI             SI
e|-----------------------------|-0/-7--7-7-7--|-0/-5--5-5--|--------------|-7-7-7-7--7-7-7|
B|-----5~-------7~--------9~-|-0/-7--7-7-7--|-0/-5--5-5--|--------------|-7-7-7-7--7-7-7|
G|-----------------------------|--------------|--------------|7-7-7-7-7-7-7-|---------------|
D|-4/5------5-5/7-----7-7/9----|--------------|--------------|--------------|---------------|
A|-----------------------------|--------------|--------------|--------------|---------------|
E|-----------------------------|--------------|--------------|--------------|---------------|


VERSO 3:

BAJO:    MI                                                                       SI
G|----|-----|-----|----|-------------|------|--|------|--|-----|------|------|------------||
D|----|-#---|-----|-#--|-------------|-Riff-|x2|-Riff-|x2|Riff-|-Riff-|-Riff-|------------||
A|----|-----|-----|----|-------------|--LA--|--|-MI---|--|-Si--|--LA--|--Mi--|2-2-2-2-222-||
E|--0-|-----|--0--|----|-0-1-2-33-44-|------|--|------|--|-----|------|------|------------||


GUITARRA igual a BAJO

MI
Voy a cuidar de mi amorcito

que esta borracha por demás,
     LARiff            MIRiff
otra vez me llama nene doctor,
           SI Riff
yo no la cambio por nada
LARiff              MIRiff   SI*
cuando empieza a cabalgar

VERSO 4: 

MIRiff
Voy a cuidar de mi amorcito

que mordió el vidrio por demás,
      LARiff           MIriff
otra vez me llama nene sifón
           SIriff
cuando me muerde alocada
LAriff           MIriff  SI*
ñan fi frufi fali fru


ESTRIBILLO FINAL:

GUITARRA:
    ____________________X2___________      ____________X2__________
   |        RIff LA         Riff MI  |    |   RIff SI              |       LA   final
e||---------------|--|----------------|--|---------------|-----|----|----|----------------------|
B||---------------|--|----------------|--|---------------|-----|----|----|----------------------|
G||---------------|X2|----------------|X2|---------------|Riff-|RIff|RIFF|---#------------------|
D||--------2-2-4-2|--|----------------|--|--------4-4-6-4|-LA--|-MI-|-SI-|-7--------------------|
A||0-0-3-4--------|--|---------2-2-4-2|--|----5-6--------|-----|----|----|-7---------------5-6-7|
E||---------------|--|-0-0-3-4--------|--|-7-7-----------|-----|----|----|-5--00-44-55-66-7-----|

BAJO
    ____________________X2___________      ____________X2__________
   |        RIff LA         Riff MI  |    |   RIff SI              |       LA    final
G||---------------|X2|----------------|X2|---------------|Riff-|RIff|RIFF|----------------------|
D||--------2-2-4-2|--|----------------|--|--------4-4-6-4|-LA--|-MI-|-SI-|---#------------------|
A||0-0-3-4--------|--|---------2-2-4-2|--|----5-6--------|-----|----|----|-----------------5-6-7|
E||---------------|--|-0-0-3-4--------|--|-7-7-----------|-----|----|----|-5--00-44-55-66-7-----|


     LARiff                 MIRIff
Ñan fi frufi fali frufi ñan fri fru
      LARiff                   MIRiff
Ñan fi frufi fali frufi ñan fri fru
            SIriff      LARiff           MIRIff       
Yo no la cambio por nada cuando empieza a cabalgar.

SIriff-LARiff-MIRIff-SIriff   LA- final- MI



y el final con MI..... varias veces

Fuente original ATAME [www.atame.org]
Colaborador original: GUILLE [elguille665@hotmail.com]

Fuente: tusacordes.com