a b c d e f g h i j k l m n o p q r s t u v w x y z 0-9

Juntos A La Par (solo)

Pappo

			


|-----3-5s7--5-3-3s5------------------------------------|
|-3-5-----------------3-3s5--3s5--3s5-3-----------------|
|----------------------------------------2s4------------|
|-------------------------------------------------------|
|-------------------------------------------------------|
|-------------------------------------------------------|


|--------------------10---------------------------------|
|-----------------8------10-------------8--10b-10-8-10--|
|------------7-9-------------------7-9------------------|
|-------7-9-------------------7-9-----------------------|
|-7-10--------------------------------------------------|
|-------------------------------------------------------|


|-----------------------3--5--7--8--7--5--3-------------|
|-----------------------3--5--7--8--7--5--3-------------|
|-----------7-9-----7-----------------------------------|
|-------7-9------9--------------------------------------|
|-7-10--------------------------------------------------|
|-------------------------------------------------------|

Fuente: tusacordes.com