a b c d e f g h i j k l m n o p q r s t u v w x y z 0-9

Ya No Jalaba

Panda

			
esta bien facil la rola 
intro 
                             UN CAMBIO
-15-12-------15-------IX7  I-5-2-----2--------------I
-------13-15----13----ICREOI-----3-5---3------------I
----------------------I    I------------------------I
----------------------I    I------------------------I
----------------------I    I------------------------I
----------------------I    I------------------------I 
VERSO 
YA NO TE VEIA IGUAL....
---------------------------------
---------------------------------
-------------------4-4-4-4-------
-5-5-5-5--4-4-4-4--4-4-4-4-------
-5-5-5-5--4-4-4-4--2-2-2-2-------
-3-3-3-3--2-2-2-2----------------   

CORO
CHEQUEN LOS TIEMPOS Y LOS RASGEOS  
--------------------------------------IESTO SE REPITE 2 VECES 
--------------------------------------I
-4------------6-----------------------I
-4------------6---------0-----------4-I
-2------------4---------2-----------4-I
------------------------0-----------2-I
INTRO 
VERSO 
CORO 
EL PUENTE, ES LO MISMO QUE EL CORO  

ESO ES TODO 
ESPERO QUE LE ALLA GUSTADO

Fuente: Tusacordes