a b c d e f g h i j k l m n o p q r s t u v w x y z 0-9

Ya No Jalaba

Panda

			
Ya no jalaba
guitarra 1

e|-7-7-7-7-7-7-7 -9-9-9-9-9-9-9-9-11-11-11-11-11-11-11-11-12-12-12-12-12-12--14-14-14-14--|
b|----------------------------------------------------------------------------------------|
g|----------------------------------------------------------------------------------------|
d|----------------------------------------------------------------------------------------|
a|----------------------------------------------------------------------------------------|
d|----------------------------------------------------------------------------------------|

e|-11-14-11-------14----14-11-------14------|
b|----------12-14----12-------12-14----12---|
g|------------------------------------------| x4
d|------------------------------------------|
a|------------------------------------------|
d|------------------------------------------|

 guitarra 2

e|---------------------------------------|
b|---------------------------------------|
g|-----------3-4-------------------------|
d|--666--44--3-4-------------------------| x4
a|--666--44--1-2-------------------------|
d|--444--22------------------------------|

Tal vez esto es lo mejor
pues lo nuestro no jaló
me pasaba todo el día pensando

que estó no va ser igual
ya tenía que terminar
al fin y alcabo no tenía caso







verso:

e|--------------14-11-------14--------|
b|--------------------12-14----12-----|
g|-8--6-------------------------------| x4
d|-8--6--9----------------------------|
a|-6--4--9----------------------------|
d|-------7----------------------------|

Ya no te veía igual
dejaba el tiempo pasar
haber si algun dia tu te dabas cuenta

Pero eso no pasó
Hasta que un buen día llego
oh oh oooh !!

coro: 2 guitarras

e|------------------------------------------------------------------------------|
b|------------------------------------------------------------------------------|
g|----4-4-4-4-4-4-4-4-------------------------------------------------------|
d|----4-4-4-4-4-4-4-4--6-6-6-6-6-6-6-6--2-2-2-2-2-2-2-2--4-4-4-4-4-4-4-4----|x2 
a|----2-2-2-2-2-2-2-2--6-6-6-6-6-6-6-6--2-2-2-2-2-2-2-2--4-4-4-4-4-4-4-4----|
d|---------------------4-4-4-4-4-4-4-4--0-0-0-0-0-0-0-0--2-2-2-2-2-2-2-2----|


No me preguntes porque
ya no quiero saber
las cosas cambian
las cosas cambian

Tal vez lo mejor
era decir adios
ya no jalaba
ya no jalaba no no !!


guitarra 1:

e|-11-14-11-------14----14-11-------14------|
b|----------12-14----12-------12-14----12---|
g|------------------------------------------| x3
d|------------------------------------------|
a|------------------------------------------|
d|------------------------------------------|

e|-11-14-11-------14----2-------2-----------|
B|----------12-14----12---4-0-2---0---------|
G|------------------------------------------|
A|------------------------------------------|
D|------------------------------------------|
E|------------------------------------------|



guitarra 2

e|---------------------------------------|
b|---------------------------------------|
g|-----------3-4-------------------------|
d|--666--44--3-4-------------------------| x4
a|--666--44--1-2---c qda sonando ------|
d|--444--22------------------------------|


creo que no entendiste bién
no te gusto ya lo se
eso que quieres nunca podrá suceder

verso:
e|--------------14-11-------14--------|
b|--------------------12-14----12-----|
g|-8--6-------------------------------| x2
d|-8--6--9----------------------------|
a|-6--4--9----------------------------|
d|-------7----------------------------|


Tratalo de aceptar
y dejame de molestar
ah ah aaah !!

coro: 2 guitarras

e|--------------------------------------------------------------------------------|
b|--------------------------------------------------------------------------------|
g|-4-----4-4-4-4-4-4-4-4----------------------------------------------------------|
d|-4-4---4-4-4-4-4-4-4-4--6-6-6-6-6-6-6-6--2-2-2-2-2-2-2-2--4-4-4-4-4-4-4-4-------|
a|-2-4---2-2-2-2-2-2-2-2--6-6-6-6-6-6-6-6--2-2-2-2-2-2-2-2--4-4-4-4-4-4-4-4-------|
d|---2--------------------4-4-4-4-4-4-4-4--0-0-0-0-0-0-0-0--2-2-2-2-2-2-2-2-------|


No me preguntes porque
ya no quiero saber
las cosas cambian
las cosas cambian

Tal vez lo mejor
era decir adios
ya no jalaba
ya no jalaba no no !!


------------

Solo guitarra 1

e|----11----------------12-11-------------|
b|-12----14-12-12-14-12-------12-14-12-11-|
g|----------------------------------------|
d|----------------------------------------|
a|----------------------------------------|
d|----------------------------------------|

e|----11-----------------12-14-12-11-12-12-14-12-11---|
b|-12----14-12--12-14-12------------------------------|
g|----------------------------------------------------|
d|----------------------------------------------------|
a|----------------------------------------------------|
d|----------------------------------------------------|


guitarra 2

e|--------------------------------------------------------------------------------|
b|--------------------------------------------------------------------------------|
g|-4-----4-4-4-4-4-4-4-4----------------------------------------------------------|
d|-4-4---4-4-4-4-4-4-4-4--6-6-6-6-6-6-6-6--2-2-2-2-2-2-2-2--4-4-4-4-4-4-4-4-------|
a|-2-4---2-2-2-2-2-2-2-2--6-6-6-6-6-6-6-6--2-2-2-2-2-2-2-2--4-4-4-4-4-4-4-4-------|
d|---2--------------------4-4-4-4-4-4-4-4--0-0-0-0-0-0-0-0--2-2-2-2-2-2-2-2-------|

guitarra 1

e|-11-14-11-------14----14-11-------14------|
b|----------12-14----12-------12-14----12---|
g|------------------------------------------|
d|------------------------------------------|
a|------------------------------------------|
d|------------------------------------------|

e|-11-14-11-------14----17-14-------17-14-|
b|----------12-14----12-------15-17-------|
g|----------------------------------------|
d|----------------------------------------|
a|----------------------------------------|
d|----------------------------------------|

e|-11-14-11-------14-----------------|
b|----------12-14----12-----14-------|
g|-----------------------------------|
d|-----------------------------------|
a|-----------------------------------|
d|-----------------------------------|

guitarra 2

e|-----------------------------------------|
b|-----------------------------------------|        hay una parte donde la guitarra dos hace silencio
g|-----------3-4---------------------------|
d|--666--44--3-4---------------------------| x4
a|--666--44--1-2---c qda sonando --------|
d|--444--22--------------------------------|


No me preguntes porque
ya no quiero saber
las cosas cambian
las cosas cambian

Tal vez lo mejor
era decir adios
ya no jalaba
ya no jalaba no no !!


coro

e|---------------------------------------------------------------------------------|
b|---------------------------------------------------------------------------------|
g|-4-----4-4-4-4-4-4-4-4-----------------------------------------------------------|
d|-4-4---4-4-4-4-4-4-4-4--6-6-6-6-6-6-6-6--2-2-2-2-2-2-2-2--4-4-4-4-4-4-4-4--------| x4
a|-2-4---2-2-2-2-2-2-2-2--6-6-6-6-6-6-6-6--2-2-2-2-2-2-2-2--4-4-4-4-4-4-4-4--------|
d|---2--------------------4-4-4-4-4-4-4-4--0-0-0-0-0-0-0-0--2-2-2-2-2-2-2-2--------|


No me preguntes porque
ya no quiero saber
las cosas cambian
las cosas cambian

Tal vez lo mejor
era decir adios
ya no jalaba
ya no jalaba no no !!


e|----11----------------12-11-------------|
b|-12----14-12-12-14-12-------12-14-12-11-|
g|----------------------------------------|
d|----------------------------------------|
a|----------------------------------------|
d|----------------------------------------|

e|----11-----------------12-14-12-11-12-12-14-12-11---|
b|-12----14-12--12-14-12------------------------------|
g|----------------------------------------------------|
d|----------------------------------------------------|
a|----------------------------------------------------|
d|----------------------------------------------------|
sugerencias, reclamos, guitarristas q me quieran agregar les dejo mi correo tankian_28@hotmail.com
q viva Pxndx!!!!!

Fuente: tusacordes.com