a b c d e f g h i j k l m n o p q r s t u v w x y z 0-9

Ya No Jalaba

Panda

			
es la parte que hace el teclado pero tambien la hace la guitarra es el intro mi correo es kywy_17@hotmail.com
no se les olvide que esta afinado en bemol
Eb Ab Db Gb Bb Eb
D# G# C# F# A# D#
Intro

-7-9-11-12-14---11-14-11-------14----14-11-12----14-----
-------------------------12-14----12----------14----12--
-------------------------------------------------------- X4
--------------------------------------------------------
--------------------------------------------------------
--------------------------------------------------------


-11--14--11-------14-----2--------2---------
------------12-14----12-----4-0-2---0-------
--------------------------------------------
--------------------------------------------
--------------------------------------------
--------------------------------------------

las demas notas son 
sol# Fa# Sim

Fuente: tusacordes.com